Oops, an error
Loading. Please wait.

6 To 8 Tab

version 3
version 3

Interactive

by AFI
5,534 views 3 this week
9 commentsread comments
1 2 3 4 5
accurate
x 10
add to favorites
launch autoscroll
font size
0
reset
how to read this tab
guitar tuner
Autoscroll
slow
fast
+/-
esc
set tempo
stop
Help us to improve Ultimate-Guitar.com Take our survey!
×
Author
6 to 8
By: Afi
tabbed by thod_leach

Intro:

|---------------------------------------------------------------------|
|---------------------------------------------------------------------|
|--------------------2------2---4p2---------2-----2---4p2---------2---|
|---9---5---7----------2-------------2---------2-------------2----x---|
|---x---x---x---x------------------------3----------------------------|
|---------------------------------------------------------------------|

Verse:

|-------------------------5---|
|--10---5----8---7--------7---|
|---9---5----7---7--------7---|
|---9---5----7---7--------7---|
|-------------------------5---|
|-------------------------5---|

Chorus:
                                                            Repeat, end 2nd phrase with:
|---3---3--------x--------------------------------5-----------------------------------------|
|---5---3--------x--------------------------------5----x------------------------------------|
|---5---4--------x---7(slide)9---7(slide)7--------6----4------------12---11-----------------|
|---5---5---4----2--------------------------------7----5------------------------------------|
|---3---5---5----2---5(slide)7---5(slide)5--------7----2------------10----9-----------------|
|---3---3---2----x---x(slide)x---x(slide)x--------5------------------x----x-----------------|

2nd Verse:

|---------------------------------------------------------------|
|--10---5---8----7----10---12-----5----6----8----8---10-----7---|
|---9---5---7----7-----9----9----5---5---5---7---7----7---------|
|---9---5---7----7-----9----9----5---5---5---7---7----7---------|
|---------------------------------------------------------------|
|---------------------------------------------------------------|

Break:
|--------------------------------------------------------5--------|
|--------------------------------------------------------7--------|
|---2---2-----2--4p2----------2---2-----2--4p2-----------7--------|
|---2------2-------------2----2-------2------------2-----7----4---|
|---x-------------------------3--------------------------5----5---|
|--------------------------------------------------------5----7---|

The end of the song is just the chorus without the stop.

Solo:

|---------------------------------------------------------------------------7-------|
|---12-----------------12-------12--12-12-12-12-12---x--x--x--x------8--------8-----|
|---14fb14--12--14------12--12--12--12-12-12-12--7---7--7--9--9--------9--------9---|
|-----------------------------------------------------------------------------------|
|-----------------------------------------------------------------------------------|
|-----------------------------------------------------------------------------------|

|---------------------------------------x----x---x----x---x---x----x---x---x---x----|
|--------------------------x--x--x--x---10--10--10---12---12--12--12--12---17--17---|
|---9--12--14slide16--12---9--9--9--9--9--------------------------------------------|
|-----------------------------------------------------------------------------------|
|-----------------------------------------------------------------------------------|
|-----------------------------------------------------------------------------------|

|----x---x---x--15--15--15---14--14---15---17---14--14---15-------15-------------15--15---15--|
|---17--17--17--12--12--12---12--12---12---15---15--15---17------------17---17---17--17---17--|
|--------------------------------------------------------------16-----------16---16--16---16--|
|---------------------------------------------------------------------------------------------|
|---------------------------------------------------------------------------------------------|
|---------------------------------------------------------------------------------------------|

|---15--15--15---14---15---|
|---12--12--12---12---12---|
|--------------------------|
|--------------------------|
|--------------------------|
|--------------------------|
Suggest correction
What's this?
You can suggest a correction to this tab. Community and Mods will review your correction and vote to approve or reject it.
comments
print report bad tab
9 comments total. Showing first comments.
+1 reply
bobby544 249 wrote on October 9 2003, 12:00 am

this tab is exactly the same as the one jade posted on the afi
web-site. everything is the same exept the \"tabbed by jade\" was
replaced with \"tabbed by thod_leach\"
so obviously this tab is right because the artist tabbed it.

+1 reply
afifury69 201 wrote on October 11 2003, 12:00 am

yeah ur a dumbass for more tabs go to afireinside.net

+1 reply
pill2comawhite 31 wrote on November 13 2003, 12:00 am

eh, if your gonna take Jades tab right off AFI's website at least credit him, not yourself, anyone can copy and paste a tab, but some real effort in it lazyass

guest
You may want to rate the tab now too:
select rating
Please do not post tabs as comments. Select "correction" instead!