Oops, an error
Loading. Please wait.

A Deep Slow Panic bass

by AFI
380 views 3 this week
no commentswrite comment
1 2 3 4 5
3 more votes to show rating
add to favorites
×
Save as Personal and add changes to this tab that will be seen only by you. Learn more ›
×
You can save this tab as Personal to edit and correct it or add notes. All changes will be seen only by you. Learn more »
launch autoscroll
font size
0
reset
guitar tuner
edit
Autoscroll
slow
fast
+/-
esc
set tempo
stop
Author
Difficulty
-------------------------------------------------------------------------------
                             A Deep Slow Panic - AFI
-------------------------------------------------------------------------------
Tabbed by: CabiKJS0925
E-mail: cesarxalbertyz253@hotmail.com

Tuning:Standard

First of all, listen to the song for timing, specially in chorus (is faster).
The timing tabbed is to give you an idea, not the exact one. Listen carefully.


Bass starts at 0:04

Intro

G|---------------------------5-8-5----------------------------5-8-5--|
D|-----------5---5----------------------------5---5------------------|
A|-3-3-3-3-3---3---3-3-3-3-3--------3-3-3-3-3---3---3-3-3-3-3--------|
E|-------------------------------------------------------------------|

G|---------------------------3-7-3---------------------------5-8-5---|
D|-----------3---3---------------------------5---5-------------------|
A|-1-1-1-1-1---1---1-1-1-1-1-------3-3-3-3-3---3---3-3-3-3-3---------|
E|-------------------------------------------------------------------|

Verse 1

G|---------------------------5-8-5----------------------------5-8-5--|
D|-----------5---5----------------------------5---5------------------|
A|-3-3-3-3-3---3---3-3-3-3-3--------3-3-3-3-3---3---3-3-3-3-3--------|
E|-------------------------------------------------------------------|\
                                                                       \ Repeat these twice
G|---------------------------3-7-3---------------------------5-8-5---| /
D|-----------3---3---------------------------5---5-------------------|/
A|-1-1-1-1-1---1---1-1-1-1-1-------3-3-3-3-3---3---3-3-3-3-3---------|
E|-------------------------------------------------------------------|

Pre-Chorus 

G|-----------------------------|
D|---------------------6-10-6--|
A|-----------6---6-------------|
E|-4-4-4-4-4---4---4-----------|

Chorus 1 

G|---------------------------------------------------------------------------------|
D|---------------------------------------------------------------------------------|
A|-6-6-6-6-6-6-6-6-6-6-6-6-------------------------55566688----------------------6-|
E|-------------------------333444556-6-6-6-6-6-6-6---------666888664-4-4-4-4-4-4---|

G|-------------------------------------------------|
D|-6-6-6-6-6-6\5-5---------------------------------|
A|----------------6-3-3-3-3-3-3-3-3-3-3-5-5-5-5-3--|
E|-------------------------------------------------|

Pre verse

G|---------------------------5-8-5------|
D|-----------5---5----------------------|
A|-3-3-3-3-3---3---3-3-3-3-3------------|
E|--------------------------------------|

Verse 2

G|---------------------------5-8-5----------------------------5-8-5--|
D|-----------5---5----------------------------5---5------------------|
A|-3-3-3-3-3---3---3-3-3-3-3--------3-3-3-3-3---3---3-3-3-3-3--------|
E|-------------------------------------------------------------------|

G|---------------------------3-7-3---------------------------5-8-5---|
D|-----------3---3---------------------------5---5-------------------|
A|-1-1-1-1-1---1---1-1-1-1-1-------3-3-3-3-3---3---3-3-3-3-3---------|
E|-------------------------------------------------------------------|

Pre-chorus 

G|---------------------|
D|-----------------6---|
A|---------------------|
E|-4-4-4-4-4-4-4-4-----|

Chorus 2

G|---------------------------------------------------------------------------------|
D|---------------------------------------------------------------------------------|
A|-6-6-6-6-6-6-6-6-6-6-6-6-------------------------55566688----------------------6-|
E|-------------------------333444556-6-6-6-6-6-6-6---------666888664-4-4-4-4-4-4---|

G|------------------------------------------------|
D|-6-6-6-6-6-6\5-5--------------------------------|
A|----------------6-3-3-3-3-3-3-3-3-3-3-1-1-1-1---|
E|------------------------------------------------|

Bridge

G|------------------------------------------------------------|
D|------------------------------------------------------------|
A|-------------------3(x8)-------------------3(x4)-5-5-6-6----|
E|-4(x8)-6(x8)-1(x8)-------4(x8)-6(x8)-1(x8)------------------|

G|-----------------------------------------------------------|
D|-----------------------------------------------------------|
A|-------------8(x8)-3(x8)-------------------3(x4)-5-5-6-----|
E|-4(x8)-6(x8)-------------4(x8)-6(x8)-1(x8)-----------------|

Chorus 3

G|---------------------------------------------------------------------------------|
D|---------------------------------------------------------------------------------|
A|-6-6-6-6-6-6-6-6-6-6-6-6-------------------------55566688----------------------6-|
E|-------------------------333444556-6-6-6-6-6-6-6---------666888664-4-4-4-4-4-4---|

G|----------------------------------------------------|
D|-6-6-6-6-6-6\5-5------------------------------------|
A|----------------6-3-3-3-3-3-3-3-3-3-3-3-3-5-5-5-5-5-|
E|----------------------------------------------------|

G|---------------------------------------------------------------------------------|
D|---------------------------------------------------------------------------------|
A|-6-6-6-6-6-6-6-6-6-6-6-6-------------------------55566688----------------------6-|
E|-------------------------333444556-6-6-6-6-6-6-6---------666888664-4-4-4-4-4-4---|

G|----------------------------------------------------|
D|-6-6-6-6-6-6\5-5------------------------------------|
A|----------------6-3-3-3-3-3-3-3-3-3-3-3-3-5-5-5-5-6-|
E|----------------------------------------------------|

| /  slide up
| \  slide down
===============================================================================

That's it.
Is an amazing song from AFI and a great bass-line from Hunter.

Enjoy your learning, cheers.
Suggest correction
Creating personal tab
Creating personal tab
You can edit any tab online and save it as your Personal.

You can edit, replace or remove any tab part or add personal notes – all changes will be seen only by you.

Personal tabs can be accessed anytime from any device, even offline.
Learn more »
Give kudos to tab author, rate the tab!
1 2 3 4 5
comments
print report bad tab
guest
You may want to rate the tab now too:
select rating
Wanna post a correction for this tab? Suggest correction