Oops, an error
Loading. Please wait.

A Fire Inside Ep Bass Tab

by AFI
1,493 views 1 this week
no commentswrite comment
1 2 3 4 5
3 more votes to show rating
add to favorites
launch autoscroll
font size
0
reset
guitar tuner
Autoscroll
slow
fast
+/-
esc
set tempo
stop
Help us to improve Ultimate-Guitar.com Take our survey!
×
Author
1: 3 1/2

Intro 
Part 1 
G------------------------------]--------------------------------------] 
D------------------------------]----------------------------2>--------] 
A------------------------------]--------------------------------------] 
E--0(let ring)------00---------]?-----0(let ring)---------------------] 

Part 2 
?Why!?? 
G---------------------------------------------------------------------] 
D---------------------------------------------------------------------] 
A-22-----0000------2222------000000-----------------------------------] 
E---------------------------------------------------------------------] 

Verse 
G---------------------------------------------------------------------] 
D------------------------------------55-------------------------------] 
A---------------------3>-----6665>------------------------------------] 
E-----5>-------8887>--------------------------------------------------] 

G---------------------------------------------------------------------] 
D-----------------------8>--------------------------------------------] 
A---------------------------------------------------------------------] 
E------5>--------8887>------------------------------------------------] 

G---------------------------------------------------------------------] 
D------------------------------------55-------------------------------] 
A---------------------3>-----6665>------------------------------------] 
E-----5>-------8887>--------------------------------------------------] 

G-----------------------------------3>--------------------------------] 
D--------3>-----------------------------------------------------------] 
A-----------------6>5>--------1>--------------------------------------] 
E---------------------------------------------------------------------] 

Chorus: 
?I?m so sick so sick of myself!? 
G----------------------------------------------]----------------------] 
D----------------------------------------------]----------------------] 
A---22-----0000------2222------000000----------]---(end on 000000)----] 
E----------------------------------------0>----]----------------------] 

Bridge part 1 is same as intro. part 1 
G---------------------------------------------------------------------] 
D--------------------------------------------(suffocation)------------] 
A--------------------------------------------(asphyxiation)-----------] 
E---0(let ring)-----00------------------------------------------------] 

Bridge part 2 
G----------------------------------]----------------------------------] 
D---------------------2>-----------]-------------2222222222-----------] 
A----------------------------------]----------------------------------] 
E----0(let ring)-00----------------]----------------------------------] 

End 
G----------------------------------------]----------------------------]
D----------------------------------------]------------------2>--------] 
A-22-----0000------2222------000000------]----------------------------] 
E----------------------------------------]------0>--------------------]



2: OVER EXPOSURE

intro
|----------------------------------------------------|
|----------------------------------------------------|
|----------------------------------------------------|
|-4--5--6----2--2-2-2-2-2-0-2-2-2-2-2-2-2-2-6----4-5-|

verse
|---------------------------------------|
|---------------------------------------|
|-----------4-4-----4-6/7-7-7-7-7-7-7-7-|
|-6-6-6-6-6-----6-6---------------------|

|-----------------------------------------|
|-4-4-4-4-4-5-5-4-4---4-4-4-4-4-5-5-4-4---|
|-------------------7-------------------7-|
|-----------------------------------------|

|---------------------------------------|
|---------------------------------------|
|-----------4-4-----4-6/7-7-7-7-7-7-7-7-|
|-6-6-6-6-6-----6-6---------------------|

|-----------------------------------------|
|-4-4-4-4-4-5-5-4-4---4-4-4-4-4-5-5-4-4-7-|
|-------------------7---------------------|
|-----------------------------------------|

chorus
|-----------------------------------------------------------------|
|---------------------------------6-6-6-6-6-6-6-6-4-4-4-4-4-4-6-8-|
|-----------------6-6-6-6-6-6-6-6---------------------------------|
|-6-6-6-6-6-6-6-6-------------------------------------------------|

|-----------------------------------------------------------------|
|---------------------------------6-6-6-6-6-6-6-6-4-4-4-4-4-6-7-8-|
|-----------------6-6-6-6-6-6-6-6---------------------------------|
|-6-6-6-6-6-6-6-6-------------------------------------------------|

|----------------|
|-8-----8--------|
|----------------|
|---6-6------4-5-|

end part 1
|---------------------------------|
|---------------------------------|
|---------------------------------|
|-6-6-6-6-6-6-6-6-6-6-6-6-6-6-6-6-|

end part 2
|-------------------------------------|
|-----------------------------------6-|
|-----4-4-4-4-4-4/7-7-7-7-7-7---------|
|-6-6-------------------------6-6-6---|

|---------------------------------------------|
|-8-----------------------------------8-----8-|
|-------4-4-4-4-4-4/7-7-7-7-7-7-7-------------|
|---6-6---------------------------4-5---6-6---|

|--------------------------------------------------|
|-----8---8----------8---8-8----------8------------|
|--------------------------------------------------|
|-4-5---6---0----4-5---6--------4-5-6----------4-5-|

|-------------------|
|-------------------|
|-------------------|
|-6--6--6--6--4-6---|



3: THE HANGING GARDEN (THE CURE COVER)


G|---|
D|---|
A|-5-|
E|---|

G|--------------------------------------------|
D|-------------------------------5-5-5--7-7-7-|
A|-5--5-5-5-5--5-5-5-5-5--3-3-3---------------|
E|--------------------------------------------|

G|---------------------------------------------------|
D|---------------------------------------------------|
A|-5-5-5-5-5-5-5-5-5-5--8-8-8-8-8--10-10-10-10-10-10-|
E|---------------------------------------------------|



Verse (Creatures kissing in the rain...)


G|--------------------------------------------|
D|-------------------------------5-5-5--7-7-7-|
A|-5--5-5-5-5--5-5-5-5-5--3-3-3---------------|
E|--------------------------------------------|

G|---------------------------------------------------|
D|---------------------------------------------------|
A|-5-5-5-5-5-5-5-5-5-5--8-8-8-8-8--10-10-10-10-10-10-|
E|---------------------------------------------------|



Verse (Watch haloes on the moon..)


G|--------------------------------------------|
D|-------------------------------5-5-5--7-7-7-|
A|-5--5-5-5-5--5-5-5-5-5--3-3-3---------------|
E|--------------------------------------------|

G|---------------------------------------------------|
D|---------------------------------------------------|
A|-5-5-5-5-5-5-5-5-5-5--8-8-8-8-8--10-10-10-10-10-10-|
E|---------------------------------------------------|

G|--------------------------------------------|
D|-------------------------------5-5-5--7-7-7-|
A|-5--5-5-5-5--5-5-5-5-5--3-3-3---------------|
E|--------------------------------------------|

G|---------------------------------------|
D|---------------------------------------|
A|-5-5-5-5-5-5-5-5-5-5-------------------|
E|----------------------6-6-6-6--8-8-8-8-|



Chorus (Fall fall fall fall...)



G|---------------------------------------|
D|---------------------------------------|
A|---------------------------------------|
E|-5-5-5-5-5-5--6-6-6-6--8-8-8--10-10-10-|



Cover my faces as
The animal cry

G|----------------------------------------------------|
D|----------------------------------------------------|
A|----------------------12-12-12-12-12-12-12-12-12-12-|
E|-5-5-5-5-5-5-5-5-5-5--------------------------------|





In the hanging garden

G|------------------------------------------|
D|------------------------------------------|
A|-5-5-5-5-5-5-5-5-5-5--3-3-3-3-3-3-3-3-3-3-|
E|------------------------------------------|




Creatures kissing in the rain
Shapless in the dark again
In the hanging garden change the past
In a hangin garden
Wearings furs and masks

G|--------------------------------------------|
D|-------------------------------5-5-5--7-7-7-|
A|-5--5-5-5-5--5-5-5-5-5--3-3-3---------------|
E|--------------------------------------------|

G|---------------------------------------------------|
D|---------------------------------------------------|
A|-5-5-5-5-5-5-5-5-5-5--8-8-8-8-8--10-10-10-10-10-10-|
E|---------------------------------------------------|

G|--------------------------------------------|
D|-------------------------------5-5-5--7-7-7-|
A|-5--5-5-5-5--5-5-5-5-5--3-3-3---------------|
E|--------------------------------------------|

G|---------------------------------------|
D|---------------------------------------|
A|-5-5-5-5-5-5-5-5-5-5-------------------|
E|----------------------6-6-6-6--8-8-8-8-|


Fall fall fall fall
Into the walls
Jump jump on the time
Fall fall fall fall
Out of the sky

G|---------------------------------------|
D|---------------------------------------|
A|---------------------------------------|
E|-5-5-5-5-5-5--6-6-6-6--8-8-8--10-10-10-|



Cover my face as the animals

G|----------------------------------------------------|
D|----------------------------------------------------|
A|----------------------12-12-12-12-12-12-12-12-12-12-|
E|-5-5-5-5-5-5-5-5-5-5--------------------------------|



Die

G|-------------------------------|
D|-------------------------------|
A|-10-10-10-10-10-10-10-10-10-10-|
E|-------------------------------|


G|------------------------------------------|
D|------------------------------------------|
A|-5-5-5-5-5-5-5-5-5-5--8-8-8-8-8-8-8-8-8-8-|
E|------------------------------------------|
2 times



As the animals
Die

G|------------------------------------------|
D|------------------------------------------|
A|-5-5-5-5-5-5-5-5-5-5--8-8-8-8-8-8-8-8-8-8-|
E|------------------------------------------|

G|---------------------------------------|
D|---------------------------------------|
A|-10-10-10-10-10--12-12-12--13-13-13--5-|
E|---------------------------------------|



In the hanging garden
In the hanging garden

G|--------------------------------------------|
D|-------------------------------5-5-5--7-7-7-|
A|-5--5-5-5-5--5-5-5-5-5--3-3-3---------------|
E|--------------------------------------------|

G|---------------------------------------------------|
D|---------------------------------------------------|
A|-5-5-5-5-5-5-5-5-5-5--8-8-8-8-8--10-10-10-10-10-10-|
E|---------------------------------------------------|

G|--------------------------------------------|
D|-------------------------------5-5-5--7-7-7-|
A|-5--5-5-5-5--5-5-5-5-5--3-3-3---------------|
E|--------------------------------------------|

G|---------------------------------------|
D|---------------------------------------|
A|-5-5-5-5-5-5-5-5-5-5-------------------|
E|----------------------6-6-6-6--8-8-8-8-|

these last four lines are made 4 times




G|--------------------------------------------|
D|-------------------------------5-5-5--7-7-7-|
A|-5--5-5-5-5--5-5-5-5-5--3-3-3---------------|
E|--------------------------------------------|
4 times



G|------------------------------------------|
D|------------------------------------------|
A|-5-5-5-5-5-5-5-5-5-5--3-3-3-3-3-3-3-3-3-3-|
E|------------------------------------------|
4 times



End

G|---|
D|---|
A|-5-|


4: DEMONOMANIA (THE MISFITS COVER)


I'm not sure that's the right thing, but I think it sounds like that.

Intro (Look upon me, I am the beast)
G-----------------|
D-----------------|
A-5-------5-------|
E-----------------|

During the whole song
G-----------------------------------------------------------------|
D-5-5-5-5---------5-5-5-5---------5-5-5-5-------------------------|
A---------3-3-3-3---------3-3-3-3---------3-3-3-3-1-1-1-1-1-1-1-1-|
E-----------------------------------------------------------------|
Suggest correction
Give kudos to tab author, rate the tab!
1 2 3 4 5
comments
print report bad tab
guest
You may want to rate the tab now too:
select rating
Wanna post a correction for this tab? Suggest correction