Oops, an error
Loading. Please wait.

A Story At Three Tab

version 4
version 4

Whole song

Interactive

by AFI
292 views 1 this week
no commentswrite comment
1 2 3 4 5
please rate
add to favorites
launch autoscroll
font size
0
reset
how to read this tab
guitar tuner
Autoscroll
slow
fast
+/-
esc
set tempo
stop
Help us to improve Ultimate-Guitar.com Take our survey!
×
A Fire Inside, A Story At Three

INTRO
--------------------------------------------------------------|
--9-9-9999-11-11---8-8-8888888--------------7-8---------------|
--x-x-xxxx--x--x---x-x-xxxxxxx---7-7-7777---x-x---------------|
--6-6-6666--8--8---5-5-5555555---x-x-xxxx---4-5------9999999--|
--x-x-xxxx--x--x---x-x-xxxxxxx---5-5-5555---x-x-7-7777777777--|
--0-0-0000--0--0-0-0-0-0000000-0-0-0-0000-0-0-0-0-00000000000-|


INTRO
----------------------------------------------------------------|
9-9-9999-11-11---8-8-8888888--------------8/10-10---------------|
x-x-xxxx--x--x---x-x-xxxxxxx---7-7-7777---9/11-11---------------|
6-6-6666--8--8---5-5-5555555---x-x-xxxx---x--x--x----99999999---|
x-x-xxxx--x--x---x-x-xxxxxxx---5-5-5555---7/-9--9-77777777777---|
0-0-0000--0--0-0-0-0-0000000-0-0-0-0000-0-0-----0-000000000000--|


INTRO
----------------------------------------------------------------|
9-9-9999-11-11---8-8-8888888------------------------------------|
x-x-xxxx--x--x---x-x-xxxxxxx---7-7-7777-12-12\7-7---------------|
6-6-6666--8--8---5-5-5555555---x-x-xxxx--x--x-x-x-9999999999999-|
x-x-xxxx--x--x---x-x-xxxxxxx---5-5-5555-10-10-5-5-7777777777777-|
0-0-0000--0--0-0-0---0000000-0-0-0-0000-----------0000000000000-|



VERSE
-----------------------------------------------------------------|
-----------------------------------------------------------------|
-99---99---55---44-777777777777-------99---99---55---44-77777777-|
-99---99---55---55-777777777777-9999--99---99---55---55-77777777-|
-77-X-55-X-33-X-55-555555555555-9999--77-X-55-X-33-X-55-55555555-|
-77-0----0-33-0-33-555555555555-7770--77-0-55-0-33-0-33-55555555-|


VERSE
------------------------------------------------------------|
------------------------------------------------------------|
--8-8-11-11-12-12-12-12-12-12-12-12-12-12-12-12-12-12-12-12-|
--X-X--X--X--X--X--X--X--X--X--X--X--X--X--X--X--X--X--X--X-|
--6-6--9--9-10-10-10-10-10-10-10-10-10-10-10-10-10-10-10-10-|
------------------------------------------------------------|


VERSE
--------------------------|
--------------------------|
--9-9-9999-SLOW-----------|
--9-9-9999-SLIDE------5-7-|
--7-7-7777-\\\\\\---5-3-5-|
--7-7-7777-\\\\\\\--3-3-5-|



CHORUS
----------------------------------------------|
----------------------------------------------|
----------------------------------------------|
-7-777777777-333333333---5555555555-3333-5555-|
-7-777777777-333333333---5555555555-3333-5555-|
-5-555555555-111111111-0-3333333333-1111-3333-|


CHORUS
----------------------------------------------------------------------|
----------------------------------------------------------------------|
----------------------------------------------PM------------12-12-12--|
-7-777777777-333333333---5555555555-3333-5555-====-77777777-12-12-12--|
-7-777777777-333333333---5555555555-3333-5555-7777-77777777-10-10-10--|
-5-555555555-111111111-0-3333333333-1111-3333-5555-55555555-10-10-10--|


VERSE
-----------------------------------------------------------------|
-----------------------------------------------------------------|
-99---99---55---44-777777777777-------99---99---55---44-77777777-|
-99---99---55---55-777777777777-9999--99---99---55---55-77777777-|
-77-X-55-X-33-X-55-555555555555-9999--77-X-55-X-33-X-55-55555555-|
-77-0----0-33-0-33-555555555555-7770--77-0-55-0-33-0-33-55555555-|


VERSE
------------------------------------------------------------|
------------------------------------------------------------|
--8-8-11-11-12-12-12-12-12-12-12-12-12-12-12-12-12-12-12-12-|
--X-X--X--X--X--X--X--X--X--X--X--X--X--X--X--X--X--X--X--X-|
--6-6--9--9-10-10-10-10-10-10-10-10-10-10-10-10-10-10-10-10-|
------------------------------------------------------------|


VERSE
--------------------------|
--------------------------|
--9-9-9999-SLOW-----------|
--9-9-9999-SLIDE------5-7-|
--7-7-7777-\\\\\\---5-3-5-|
--7-7-7777-\\\\\\\--3-3-5-|


CHORUS, 3Xs
|--------------------------------------------------|
|:------------------------------------------------:|
|--------------------------------------------------|
|---7-777777777-333333333---5555555555-3333-5555---|
|:--7-777777777-333333333---5555555555-3333-5555--:|
|---5-555555555-111111111-0-3333333333-1111-3333---|


CHORUS
----------------------------------------------------------------------|
----------------------------------------------------------------------|
----------------------------------------------------------------------|
-7-777777777-333333333---5555555555-3333-5555-7-----------------------|
-7-777777777-333333333---5555555555-3333-5555-7-----------------------|
-5-555555555-111111111-0-3333333333-1111-3333-5-----------------------|



BRIDGE
-----------------------------------------------------------------------|
-----------------------------------------------------------------------|
------------------------LONG-REST--------------------------------------|
-----------3-2-0-------------------------------------------------------|
--3----33--------------------------------------------------------------|
-----------------------------------------------------------------------|


BRIDGE
|-----------------------------------|---------------------------------|
|:---------------------------------:|---------------------------------|
|-------/7-7----2-2-------5---------|-----77-X-----REST---------------|
|--5-5--/7-7----2-2----3--5-555-----|-5-5-77-X------------------------|
|:-5-5--/5-5----0-0----3--3-222----:|-5-5-55-X------------------------|
|--3-3--/5-5--0-0-0-00-1--------00--|-3-3-55-0------------------------|


Bridge End
------------------|
------------------|
------------------|
-5555555555555555-
-5555555555555555-
-3333333333333333-



CHORUS, 4Xs
|--------------------------------------------------|
|:------------------------------------------------:|
|--------------------------------------------------|
|---7-777777777-333333333---5555555555-3333-5555---|
|:--7-777777777-333333333---5555555555-3333-5555--:|
|---5-555555555-111111111-0-3333333333-1111-3333---|


OUTRO
------------------------------------|
------------------------------------|
--2-pm-----2--------2-----2-----2---|
--2-======-2-======-2-===-2-===-2---|
--0-000000-0-000000-0-000-0-000-0---|
------------------------------------|
Suggest correction
Give kudos to tab author, rate the tab!
1 2 3 4 5
comments
print report bad tab
guest
You may want to rate the tab now too:
select rating
Wanna post a correction for this tab? Suggest correction