Oops, an error
Loading. Please wait.

A Winters Tale Tab

version 1
version 1

Whole song

Interactive

by AFI
3,705 views 1 this week
2 commentsread comments
1 2 3 4 5
x 5
add to favorites
launch autoscroll
font size
0
reset
how to read this tab
guitar tuner
Autoscroll
slow
fast
+/-
esc
set tempo
stop
Help us to improve Ultimate-Guitar.com Take our survey!
×
Author
AFI- A Winter's Tale
danc446@yahoo.com

: - let ring
/ - slide up
\ - slide down
h - hammer on
p - pull off
* - palm mute

RIFF 1
e|---10--8--8-6--------------------10--8--8-6--------------------|
B|---10--8-10-6--------------------10--8-10-6--------------------| 
G|---11--9-10-8--------------------11--9-10-8--------------------|  
D|---12-10-10-8-10-10-10-10-10-10--12-10-10-8-10-10-10-10-10-10--|
A|---12-10--8-8-10-10-10-10-10-10--12-10--8-8-10-10-10-10-10-10--|
E|---10--8--8-6--8--8--8--8--8--8--10--8--8-6--8--8--8--8--8--8--|

e|-----------------------------------------------------------|
B|--------------------------------------8p6/8----------------|  
G|--7-5-10-7--12-14-16-12-12--17\15---7-------5-10-12-12-12--|
D|-----------------------------------------------------------| 
A|--5-3--8-5--10-12-14-10-10--15\13---5-------3--8-10-10-10--|
E|-----------------------------------------------------------|

VERSE
e|--10101010---666666---1010101010----8-8-8-8----------|
B|--10101010---666666---1010101010----8-8-8-8---Repeat-|
G|--11111111---888888---1010101010----9-9-9-9----once--|
D|--12121212---888888---1010101010---10101010----------|
A|--12121212---888888----8-8-8-8-8---10101010----------|
E|--10101010---666666-----------------8-8-8-8----------|
PM|(On repeat only)                  *********         |

e|---10:-------6:---------8:--------8:------------------|
B|---10:-------6:--------10:--------8:------------------|
G|---11:-------8:--------10:--------9:------------------|
D|---12:-------8:--------10:-------10:------------------|
A|---12:-------8:---------8:-------10:------------------|
E|---10:-------6:---------8:--------8:------------------|

Pre-Chorus
"A STRING OF wHITE lIGHTS...."
e|-----|
B|-----|
G|--8--|
D|--8--|
A|--8--|
E|--6--|

e|-6666666-3333333-5555555---|
B|-6666666-5555555-7777777---|
G|-8888888-5555555-7777777---|
D|-8888888-5555555-7777777---|
A|-8888888-3333333-5555555---|
E|-6666666-------------------|


Chorus
e|--------------------------------------|
B|-10101010-----------------------------|
G|-10101010--9-9-9-9--1111111111111111--|
D|-10101010-10101010--1212121212121212--|
A|--8-8-8-8-10101010--1212121212121212--|
E|-----------8-8-8-8--1010101010101010--|

e|--------------------------------------|
B|-10101010-----------------------------|
G|-10101010--9-9-9-9-88888-1212-1010----|
D|-10101010-10101010-88888-1212-1010----|
A|--8-8-8-8-10101010-88888-1212-1010----|
E|-----------8-8-8-8-66666-1010--8-8----|

e|--------------------------------------|
B|-10101010-----------------------------|
G|-10101010--9-9-9-9-11111111-88888-----|
D|-10101010-10101010-12121212-88888-----|
A|--8-8-8-8-10101010-12121212-88888-----|
E|-----------8-8-8-8-10101010-66666-----|

e|------------------|
B|------------------|
G|------------------|
D|--7777-----7777---|
A|--7777-----7777---|
E|--5555-----5555---|
PM|          ****

RIFF 1
PRE CHORUS 
CHORUS
BRIDGE (DRUM AND BASS ONLY)

Guitar's Bridge (After D+B bridge)
e|--5:---1:---8:---5:--|
B|--6:---1:---8:---6:--|
G|--7:---2:---9:---7:--| 
D|--0:-------------0:--|
A|---------------------|
E|---------------------|

e|-------------------------------------|
B|--------8----------6-------8---------|
G|--77777-9-10101010-7-55555-9-777777--|
D|--77777-9-10101010-7-55555-9-777777--|
A|--55555-7--8-8-8-8-5-33333-7-555555--|
E|--------0----------------------------|
PM| *****   ********   *****   ******  |

e|-----------------------------------------------------|
B|-----------------------------------------------------|
G|--77777-5h7---10101010--7--55555-5h7---777777777777--|
D|--77777-----0-10101010--7--55555-----0-777777777777--|
A|--55555--------8-8-8-8--5--33333-------555555555555--|
E|-----------------------------------------------------|
Pm  *********************************************      |

CHORUS

OUTRO
e|--------10----|
B|--------10----|
G|--------11----|
D|--7777--12----|
A|--7777--12----|
E|--5555--10----|

__________________________________________________________________________
Suggest correction
comments
print report bad tab
2 comments total.
0 reply
pill2comawhite 240 Jul 17, 2004 12:00 AM

close, but no cigar

+1 reply
afi_336 70 Jan 09, 2005 12:00 AM

ya thats not quite right
my intro is
-5-3-8---6--8--
-6-5-10--6--8--
-6-5-10--7--9--
-7-5-10--8--10-
-5-3-8---8--10-
-5-3-8---6--8--

and then instead of the last chord play this

-------------------------------------------------6-8-5------------
--------------10-11-10---------------------------6-6-6-8--11------
--------10-9--10-10-10-9--10-12-9--10--12/14\10--------9--9-------
--------0--0-----------10-10-10-10-10--x--x--x---------10-10------
-7-8-10--------------------------------10/12\8-------------------
-8-8-8-----------------------------------------------------------

guest
You may want to rate the tab now too:
select rating
Wanna post a correction for this tab? Suggest correction