Oops, an error
Loading. Please wait.

Advances In Modern Technology Bass Tab

by AFI
271 views 1 this week
no commentswrite comment
1 2 3 4 5
3 more votes to show rating
add to favorites
launch autoscroll
font size
0
reset
guitar tuner
Autoscroll
slow
fast
+/-
esc
set tempo
stop
Help us to improve Ultimate-Guitar.com Take our survey!
×
Author
Difficulty
novice
A.F.I. - Advances in Modern Technology

/ Slide
> Strum
~ Ring

Intro
G|--------------------------------------------------------------------------|
D|------------------5-5-----------------------------------------------------|
A|-----------------------5--------------------------------------------------|
E|-0-~~~~~~~~~~-------------------------------------------------------------|

Verse 2x
G|--------------------------------------------------------------------------|
D|--------------------------------------------------------------------------|
A|-7>--5>--7>--3>---2>--0>--2>--3333----------------------------------------|
E|--------------------------------------------------------------------------|

Chorus 2x
G|--------------------------------------------------------------------------|
D|--------------------------------------------------------------------------|
A|-7>--5>--3>----7>--5>--3>-------------------------------------------------|
E|--------------------------------------------------------------------------|

Bridge
G|---------------------------------------------------------------------------|
D|-----------------------------------------4-5-7-5-4-0-(2x)--Last Time--55---|
A|--------------77------7>/10>-999-3--3>--5--------------------------------5-|
E|-0-~~~~~~~~~~--------------------------------------------------------------|

Outro
G|--------------------------------------------------------------------------|
D|--------------------------------------------------------------------------|
A|-7777-5-77/2--------------------------------------------------------------|
E|--------------------------------------------------------------------------|

how the song gos
Intro 1x
Verse 2x
Chorus 2x
Verse 2x
Chorus 2x
Bridge 1x
Chorus 2x
Outro 1x
Suggest correction
Give kudos to tab author, rate the tab!
1 2 3 4 5
comments
print report bad tab
guest
You may want to rate the tab now too:
select rating
Wanna post a correction for this tab? Suggest correction