Oops, an error
Loading. Please wait.

Affliction Bass Tab

version 2
version 2

Whole song

Interactive

by AFI
439 views 1 this week
no commentswrite comment
1 2 3 4 5
1 last vote to show rating
add to favorites
launch autoscroll
font size
0
reset
guitar tuner
Autoscroll
slow
fast
+/-
esc
set tempo
stop
Help us to improve Ultimate-Guitar.com Take our survey!
×
AFI
Affliction
Tuning: Half step down

Verse
Gb|-------------------|--------------|---------------------|
Db|--------5-5h7-75---|--------------|-77-799-91010-101212-|
Ab|---0h5h7--------7--|-44-444-4-444-|---------------------|
Eb|-55--------------5-|--------------|---------------------|

Pre chorus
Gb|-----------------|-----------------|
Db|-----------------|-----------------|
Ab|-----------------|-----------------|
Eb|-55-55-55-577888-|-55-55-55-555555-|

Chorus                |1st ending            |2nd ending
Gb|-------------------|----------------------|-------------------|
Db|----------/532-32--|----------------------|-33333333/55555555-|
Ab|-3-3-3333-----5--5-|----------------------|-------------------|
Eb|-------------------|-1-111-1111-5555-7777-|-------------------|

Repeat verse - Pre chorus - Chorus

Bridge Pt.1
Gb|------------------------------|
Db|-/7-5---5---------------------|
Ab|------7---7-5-3-5-7-5-3-5-3---|
Eb|----------------------------5-|

Bridge Pt.2
Gb|--------------------------------|--------------------------------|
Db|--------------------------------|--------------------------------|
Ab|--------------------------------|--------------------------------|
Eb|-5-7-8-7-5-7-5--1111/31-000-000-|-5-7-8-7-5-7-5--1111/31-00000-3-|

Ending
Gb|---------|---------|---------|--------|
Db|-----5-7-|---------|-----5-7-|--------|
Ab|--7-6----|---------|--7-6----|--------|
Eb|-5-------|-5-7/8-8-|-5-------|-77--4--|

Add my Myspace:
Myspace.com/Jake_bums_sheep_x
I'll add you fer shure and we can bum over the interweb lolz
Suggest correction
Give kudos to tab author, rate the tab!
1 2 3 4 5
comments
print report bad tab
guest
You may want to rate the tab now too:
select rating
Wanna post a correction for this tab? Suggest correction