Oops, an error
Loading. Please wait.

All Hallows Ep Bass Tab

by AFI
2,818 views 1 this week
1 commentread comment
1 2 3 4 5
please rate
add to favorites
launch autoscroll
font size
0
reset
guitar tuner
Autoscroll
slow
fast
+/-
esc
set tempo
stop
Help us to improve Ultimate-Guitar.com Take our survey!
×
Author
Difficulty
intermediate
1: Fall Children
2: Halloween
3: The Boy Who Destroyed The World
4: Totalimmortal

1: FALL CHILDREN

intro:

G------------------|
D------------------|
A------------------|
E--/12---/12---7---|


verse:

G--------------------------------------------------------------------------|
D---------------------5--------------------------------9-------------------|
A--7----5--8--7----5------3------------7----5--8--7----8--2---3-------5----|
E------------------------------3--2-------------------------------3-------7|

chorus:

G------------------------------------------------------------------------|
D------------------------------------------------------------------------|
A--7-----------5-----7---(5)------7----------5------------------------7--|
E--------3------------------------------3---------6------1---3----0------|

breakdown:

G----breakdown intro-----|-----------------first half of breakdown---------|
D------------------------|----------------------------------------------7--|
A---7----------7-5-------|-----7----------5-------------------7---------5--|
E--/---0----/----5-3-3---|-----0-----7-8-----5-7--5-3-2-0------7-8-------7-|

second half of the breakdown where Dave is singing alone:

G--------------------------------------------------------------|
D-----------------------------------------------------------9--|
A------7----------5-------------------7----------5---------/---|
E--0-------7-8--------5-7--5-3-2-0--------7-8---------7--------|

this is the final part with the whoahs:

G-----------------------------------------------------|
D--------------------------------------5--------------|
A--------------5-----7-------------5-7---7-5----------|
E--0-----3-----------------0-3-5/7-----------7-5\3-0--|


2:HALLOWEEN

(Bass comes in at 0:09)
Verse x2
G-------------------------------------------------------------------------|
D-------------------------------------------------------------------------|
A-22222222-5555555-0----0000-2222222--5555555----000000-222222222-33333222|
E-------------------3333---------------------3333-------------------------|

Pre-Chorus
G----------------------------------------------------------------|
D--4-55-4-55-4-55-4-55-----------------------4-55-4-55-4-55-4-55-|
A----------------------22222222-33333322222----------------------|
E----------------------------------------------------------------|

Chorus
G---------------------------|
D---------------------------|
A--222222222222-00000000000-|
E---------------------------|

Verse 2  x1
G------------------------------------------------------------|
D------------------------------------------------------------|
A--22222222-55555555------0000-22222222-55555555------000000-|
E--------------------3333------------------------3333--------|

3: THE BOY WHO DESTOYED THE WORLD

Intro/Chorus

G------------------------------------------|
D------------------------------------------|
A-2222-00-22-2222-33-55----------5555-0000-|
E-----------------------33333333-----------|

Verse
                                  4th time play
G-----------------------        G------------|
D-----------------------        D------------|
A-2222-00-22------------        A-2222-0-2---|
E------------3333-55-00-        E----------3-|

Pre Chorus

G-------------------------------------------------|
D-------------------------------------------------|
A-2-(strum fast over and over)-4-4-4-2-(pause)-2/-|
E-------------------------------------------------|

Break

A-2-(over and over)

(Ending,this might be slightly off but you can improvise)
                  repeat until end
G-----------     G------------------------------------|
D-----------     D------4--------5--------4-------5---|
A-2-013-467-     A-0000---00-456---5-0000---0-456---5-|
E-----------     E------------------------------------|

4: TOTALIMMORTAL

intro
G----------------------------7-9-7---------------------9-|
D----------------------5-7-9-------9---------------5-7---|
A----777----555----777------------------777----555-------|
E-00-----33-----00-------------------00-----33-----------|

verse
G------------------------------------------------------------|
D------------------------------------------------------------|
A------7-555------777-5-7-----5555------7-555----------------|
E-0000-------3333---------333------0000-------3333-5-6-3-333-|

G--------------------------------------------------------------------|
D--------------------------------------------------------------------|
A------7-555------777-5-7-----5555------7-555----------------------8-|
E-0000-------3333---------333------0000-------3333-777777777777777---|

pre chorus
G---
D---
A--- just hit that note a lot of times
E-0-

chorus
G----------------------------------------------------|
D----------------------------------------------------|
A---7---7-5-7-------------4-5---5-4-5-7-5-7-10-10-10-|
E-0-----------2-3---3-2-3----------------------------|

G-------------------------------------------------|
D-------------------------------------2-4-5-7-7-7-|
A---7---7-5-7-------------4-5---5-4-5-------------|
E-0-----------2-3---3-2-3-------------------------|

bridge
G--------------    -------------------------------------------------------|
D--------------    ----------------------------------------5h7-77777777---|
A-5h7-77777777- x4 -5h7-77777777--------------5h7-77777777--------------7-|
E--------------    --------------5h7-77777777-----------------------------|
Suggest correction new What's this?
You can suggest a correction to this tab. Community and Mods will review your correction and vote to approve or reject it.
comments
We did not receive enough feedback on this tab! Please rate:
print report bad tab
1 2 3 4 5
1 comment total.
0 reply
wesky23 20 wrote on May 10 2008, 10:40 pm

dude u r awesome. 5 stars!!

guest
You may want to rate the tab now too:
select rating
Please do not post tabs as comments. Select "correction" instead!