Oops, an error
Loading. Please wait.

At A Glance Bass Tab

version 1
version 1

Whole song

Interactive

by AFI
770 views 1 this week
no commentswrite comment
1 2 3 4 5
1 last vote to show rating
add to favorites
launch autoscroll
font size
0
reset
guitar tuner
Autoscroll
slow
fast
+/-
esc
set tempo
stop
Help us to improve Ultimate-Guitar.com Take our survey!
×
Author
Difficulty
intermediate
ARTIST - AFI
SONG - AT A GLANCE
ALBUM - BLACK SAILS IN THE SUNSET
TUNING - STANDARD
TABBED BY 24fRETSoFfURY

ALL THE OTHER TABS FOR THIS SONG ARE TAKEN STRAIGHT OF THE WEBSITE
OBVIOUSLY THEY ARE RIGHT BUT I HAVE EXPANDED THEM TO SHOW HOW MANY
TIMES EACH NOTE IS PLAYED. THIS MAY NOT BE EXACTLY HOW HUNTER PLAYS
IT BUT IT WORKS AND SOUNDS GOOD, SO LEARN IT BEFORE YOU RATE IT.

INTRO
|------------------------12-12-12-12-12-12-12-12-12-12-12-12-12\-|
|--14xx14xx14xx14xx14x14x----------------------------------------|
|----------------------------------------------------------------|
|----------------------------------------------------------------|

VERSE
|----------------------------------------------------------------|
|-3-----------------3-----------------3--------------------------|
|--5555555-1---------5555555-1---3333--5555555-1-----------------|
|-----------1111111-----------111---------------1111111----------|

PRE VERSE 1
|----------------------------------------------------------------|
|----------------------------------------------------------------|
|-333344445555---------------------------------------------------|
|-------------6666-----------------------------------------------|

CHORUS
|----------------------------------------------------------------|
|----------------------------------------------------------------|
|---------33566666665668-----------------------------------------|
|-33333333--------------6666666566788888888----------------------|
continued
|----------------------------------------------------------------------------|
|-------5533-----------------------------------------------------------------|
|-----------566666665668888888865--------------------10-10-10-10-10-10-10-10-|
|-333333-------------------------666111-333333333333/------------------------|

VERSE
|----------------------------------------------------------------|
|-3-----------------3-----------------3--------------------------|
|--5555555-1---------5555555-1---3333--5555555-1-----------------|
|-----------1111111-----------111---------------1111111----------|

PRE VERSE 2
|----------------------------------------------------------------|
|----------------------------------------------------------------|
|-333344445555---------------------------------------------------|
|-------------6-6-5----------------------------------------------|

CHORUS
|----------------------------------------------------------------|
|----------------------------------------------------------------|
|---------33566666665668-----------------------------------------|
|-33333333--------------6666666566788888888----------------------|
continued
|----------------------------------------------------------------|
|-------5533-----------------------------------------------------|
|-----------566666665668888888865--------------------------------|
|-333333-------------------------666111--------------------------|

BRIDGE
|----------------------------------------------------------------|
|----------------------------------------------------------------|
|-------6---------------55--66--55--66-66--55--66--55--66--------|
|-3--333--5-55555555-55------------------------------------------|
 
|----------------------------------------------------------------|
|----------------------------------------------------------------|
|-55--66--55--66-66-55-66---3-3-3-----55--66--55--66-66----------|
|--------------------------------35555---------------------------|

|----------------------------------------------------------------|
|---335533-----------------------------575-----------------------|
|-55------66-6--3-3-3------3-3-3--3/5-7---7----------------------|
|--------------------35555------35----------8-8-8/3-55555555-----|

|----------------------------------------------------------------|
|----------------------------------------------------------------|
|----------------------------------------------------------------|
|-5555555555555--------------------------------------------------|

CHORUS
|----------------------------------------------------------------|
|----------------------------------------------------------------|
|---------33566666665668-----------------------------------------|
|-33333333--------------6666666566788888888----------------------| 
continued
|----------------------------------------------------------------|
|-------5533-----------------------------------------------------|
|-----------566666665668888888865--------------------------------|
|-333333-------------------------666111--------------------------|

|----------------------------------------------------------------|
|----------------------------------------------------------------|
|---------33566666665668-----------------------------------------|
|-33333333--------------6666666566788888888----------------------|

|----------------------------------------------------------------|
|-------5533-----------------------------------------------------|
|-----------566666665668888888865--------------------------------|
|-333333-------------------------666111-3~-----------------------|

OUTRO
|----------------------------------------------------------------|
|----------------------------------------------------------------|
|-----11-------55-------00---55331100----------------------------|
|-3333--33-6666--66-1111--11-------------------------------------|

|-------------------------------------|  OUTRO REPEATED LOTS.
|----------------------------------33-|  LAST TIME END WITH d|-5~|
|-----11-------55-------00---553355---|
|-3333--33-6666--66-1111--11----------|

THATS IT. 
Suggest correction
Give kudos to tab author, rate the tab!
1 2 3 4 5
comments
print report bad tab
guest
You may want to rate the tab now too:
select rating
Wanna post a correction for this tab? Suggest correction