Oops, an error
Loading. Please wait.

At A Glance Tab

version 3
version 3

Whole song

Interactive

by AFI
592 views 1 this week
no commentswrite comment
1 2 3 4 5
please rate
add to favorites
launch autoscroll
font size
0
reset
how to read this tab
guitar tuner
Autoscroll
slow
fast
+/-
esc
set tempo
stop
Help us to improve Ultimate-Guitar.com Take our survey!
×
Contributor
AlienFreak77 2,475
At A Glance


intro
-----------------------------------------------------|
-----------------------------------------------------|
-9----9----9----9----9---9---12-pick-this-count------|
-7----8----7----8----7---8---10-\\\\\\\\\\\\\\\\-----|
---00---00---00---00---0---0--0----------------------|
-----------------------------------------------------|


intro
-----------------------------------------------------|
-----------------------------------------------------|
-9----9----9----9----9---9---------------------------|
-7----8----7----8----7---8---777888-777888-x\-pick---|
---00---00---00---00---0---0-000000-000000-x\\scrape-|
---------------------------------------------\\\-----|


verse
-----------------------------------------------------------------------|
-----------------------------------------------------------------------|
-10-777777777-3---------10-777777777-3---------10-777777777-3---000000-|
-10-777777777-3-3333333310-777777777-3-3--5555-10-777777777-3-3-555555-|
--8-555555555-1-33333333-8-555555555-1-3--3333--8-555555555-1-3-333444-|
--8-555555555-1-11111111-8-555555555-1-1--3333--8-555555555-1-1--------|


verse
-----------|
-----------|
77777777777
77777777777
55555555555
55555555555



chorus
---------------------------------------------|
---------------------------------------------|
------------8888888888------------5555555555-|
-5555555555-8888888888-8888888888-5555555555-|
-5555555555-6666666666-8888888888-3333333333-|
-3333333333-6666666666-6666666666-3333333333-|



chorus
-------------------------------------------------------------------|
-------------------------------------------------------------------|
------------8888888888-55555555555--3333---------------------------|
-5555555555-8888888888-55555555555--3333-333-55555555555-x\pick----|
-5555555555-6666666666-33333333333--1111-333-55555555555-x\\scrape-|
-3333333333-6666666666-33333333333-------111-33333333333---\\\-----|





verse
-----------------------------------------------------------------------|
-----------------------------------------------------------------------|
-10-777777777-3---------10-777777777-3---------10-777777777-3---000000-|
-10-777777777-3-3333333310-777777777-3-3--5555-10-777777777-3-3-555555-|
--8-555555555-1-33333333-8-555555555-1-3--3333--8-555555555-1-3-333444-|
--8-555555555-1-11111111-8-555555555-1-1--3333--8-555555555-1-1--------|


verse
---------------|
---------------|
77777777777----|
77777777777-8-x
55555555555-8-x
55555555555-6-x



chorus
---------------------------------------------|
---------------------------------------------|
------------8888888888------------5555555555-|
-5555555555-8888888888-8888888888-5555555555-|
-5555555555-6666666666-8888888888-3333333333-|
-3333333333-6666666666-6666666666-3333333333-|



chorus
-------------------------------------------------------------------|
-------------------------------------------------------------------|
------------8888888888-55555555555--3333--------8---222222222--22--|
-5555555555-8888888888-55555555555--3333-333-5--8---222222222--22--|
-5555555555-6666666666-33333333333--1111-333-5--6---000000000--00--|
-3333333333-6666666666-33333333333-------111-3--6-0-000000000--00--|



BRIDGE
|-------------------------------------------|
|:-----------------------------------------:|
|-------------------------------------------|
|----778877-----------778877------10-10\----|
|:-55------66688866-55------666888---------:|
|-------------------------------------------|



BRIDGE
----------------------------------------------------------------------|
--------------------------------------------------------555-----------|
--------------------------------------------------------555-666666666-|
---778877-----------778877------10-10\---778877---------555-777777777-|
-55------66688866-55------666888-------55------66688866-333-777777777-|
--------------------------------------------------------333-555555555-|



BRIDGE
----------------------------------------------------------------------|
--------------------------------------------------------555-----------|
--------------------------------------------------------555-666666666-|
---778877-----------778877------10-10\---778877---------555-777777777-|
-55------66688866-55------666888-------55------66688866-333-777777777-|
--------------------------------------------------------333-555555555-|


BRIDGE
---------------------------------------------------|
-555------------555--------------------------------|
-555-666666666--555-666666666----------------------|
-555-777777777--555-777777777-----------77777------|
-333-777777777--333-777777777--====-777777777-X\---|
-333-555555555--333-555555555--5555-555555555-X\\--|



chorus
---------------------------------------------|
---------------------------------------------|
------------8888888888------------5555555555-|
-5555555555-8888888888-8888888888-5555555555-|
-5555555555-6666666666-8888888888-3333333333-|
-3333333333-6666666666-6666666666-3333333333-|


chorus
---------------------------------------------|
---------------------------------------------|
------------8888888888-55555555555--333------|
-5555555555-8888888888-55555555555--333--333-|
-5555555555-6666666666-33333333333--111--333-|
-3333333333-6666666666-33333333333-------111-|



chorus
---------------------------------------------|
---------------------------------------------|
------------8888888888------------5555555555-|
-5555555555-8888888888-8888888888-5555555555-|
-5555555555-6666666666-8888888888-3333333333-|
-3333333333-6666666666-6666666666-3333333333-|


chorus
---------------------------------------------|
---------------------------------------------|
------------8888888888-55555555555--333------|
-5555555555-8888888888-55555555555--333--333-|
-5555555555-6666666666-33333333333--111--333-|
-3333333333-6666666666-33333333333-------111-|



OUTRO
|----------------------------------------|
|:--------------------------------------:|
|----------------------------------------|
|-----------------------------77777777---|
|:--1111111-5555555-0000000-0-55555555--:|
|---3333333-6666666\1111111-0-55555555---|


OUTRO
---------------------------------------------------------------------|
-----------------------------------------------13---------15---------|
777-99-10-10-12----------15---------14----------x\\\\\\\\--x\\\\\\\\-|
xxx-xx--x--x--x-\\\\\\\\--x-\\\\\\\--x\\\\\\\\-10---------12---------|
555-77--8--8-10----------13---------12-------------------------------|
---------------------------------------------------------------------|


OUTRO
-----------------------------------------------------------------------|
16--------13-----------------------------------------------------------|
-x\\\\\\\\-x\\\\\\\\-15----14----12---15----14----12--15----14----12---|
13--------10----------x\\\--x\\\--x\\--x\\\--x\\\--x\\-x\\\--x\\\--x\\-|
---------------------13----12----10---13----12----10--13----12----10---|
-----------------------------------------------------------------------|


OUTRO
-----------------------------------------------------------------------|
-----------------------------------------------------------------------|
-10---------14---------12--------\10--------/14--------\7--------------|
--x\\\\\\\\--x\\\\\\\\--x\\\\\\\-\-x\\\\\\\-/15\\\\\\\\\x\\\\\\\\--5---|
--8---------12---------10--------\-8--------/12--------\5----------5---|
-------------------------------------------------------------------3---|
Suggest correction What's this?
You can suggest a correction to this tab. Community and Mods will review your correction and vote to approve or reject it.
comments
We did not receive enough feedback on this tab! Please rate:
print report bad tab
1 2 3 4 5
I want to post or [tab]
guest
You may want to rate the tab now too:
select rating
Please do not post tabs as comments. Select "correction" instead!