Oops, an error
Loading. Please wait.

Battled Tab

version 1
version 1

Whole song

Interactive

by AFI
509 views 1 this week
no commentswrite comment
1 2 3 4 5
x 3
add to favorites
launch autoscroll
font size
0
reset
how to read this tab
guitar tuner
Autoscroll
slow
fast
+/-
esc
set tempo
stop
Help us to improve Ultimate-Guitar.com Take our survey!
×
Author
AFI
Battled/hidden track
It is probably the easiest song on the album but is
Still fun to play
Standard tuning


e|--555-3-555-3-555-3-11-33---555-3-555-3-555-3-33-33-|
b|--555-3-555-3-555-3-11-33---555-3-555-3-555-3-33-33-|
G|--555-3-555-3-555-3-11-33---555-3-555-3-555-3-55-33-|
D|--777-5-777-5-777-5-33-55---777-5-777-5-777-5-55-55-|
A|--777-5-777-5-777-5-33-55---777-5-777-5-777-5-33-55-|
E|--555-3-555-3-555-3-11-33---555-3-555-3-555-3-33-33-|

Chorus:

e|---33-333-355-5-55-5---33-333-355-6-55-5-----------|
B|---33-333-355-5-55-5---33-333-355-6-55-5-----------|
G|---55-333-355-5-55-5---55-533-355-6-55-5-----------|
D|---55-555-577-7-77-7---55-555-577-8-77-7-----------|
A|---33-355-577-7-77-7---33-355-577-8-77-7-----------|
E|---33-333-355-5-55-5---33-333-355-6-55-5-----------|

Outro:

e|---33-333-355-5-55-5---33-333-3--6--5--3--5--------|
B|---33-333-355-5-55-5---33-333-3--6--5--3--5--------|
G|---55-533-355-5-55-5---55-533-3--8--7--5--5--------|
D|---55-555-577-7-77-7---55-555-5--8--7--5--7--------|
A|---33-355-577-7-77-7---33-355-5--6--5--3--7--------|
E|---33-333-355-5-55-5---33-333-3--6--5--3--5--------|

e|---6--5--3--5--------------------------------------|
B|---6--5--3--5--------------------------------------|
G|---8--7--5--5--------------------------------------|
D|---8--7--5--7--------------------------------------|
A|---6--5--3--7--------------------------------------|
E|---6--5--3--5--------------------------------------|
Suggest correction
Give kudos to tab author, rate the tab!
1 2 3 4 5
comments
print report bad tab
guest
You may want to rate the tab now too:
select rating
Wanna post a correction for this tab? Suggest correction