Oops, an error
Loading. Please wait.

Beautiful Thieves Tab

version 2
version 2

Whole song

Interactive

by AFI
6,515 views 6 this week
5 commentsread comments
1 2 3 4 5
excellent!
x 4
add to favorites
launch autoscroll
font size
0
reset
how to read this tab
guitar tuner
Tab Pro tools
  • play this tab
  • loop segment
  • change instrument
  • show fretboard
  • metronome
Autoscroll
slow
fast
+/-
esc
set tempo
stop
Contributor
“Beautiful Thieves”
By AFI


INTRO (play four times)     VERSE
||------------------------||-----------------------------------------|
||::--------------------::||-----------------------------------------|
||----------333-555-------||-----------0---------0---------0---------|
||--555-333---------33-55-||----8----------8---------8--------8------|
||::--------------------::||-10----10--------10--------10-------10---|
||------------------------||-----------------------------------------|


VERSE
------------------------------------------------------------------|
------------------------------------------------------------------|
------0-------0-------0----------------0-------0--------0---------|
--7------7-------7------7---------8-------8-------8--------8------|
8---8------8-------8------8-----6---6-------6--------6--------6---|
------------------------------------------------------------------|


VERSE
------------------------------------------------------------------------|
------------------------------------------------------------------------|
--------0---------------0-------------------0---------0---------0-------|
---7------7--------7------7----------8----------8---------8--------8----|
-8---8-------8---9---9-------9----10----10--------10--------10-------10-|
------------------------------------------------------------------------|


VERSE
-----------------------------------------------------------------------|
-----------------------------------------------------------------------|
----------0------0-----0-----------------0-------0------0--------------|
-----7------7------7-----7---------10-------10-----10------10----------|
--8----8------8------8-----8----7-----7--------7------7-------7--------|
-----------------------------------------------------------------------|


VERSE
----------------------------------------------BEND----|
-----------------------------------0000000--////////--|
--------0----------------0---------5555555.55555555---|
---8------8---------5-------5-------------------------|
-6---6-------6----3---3--------3----------------------|
------------------------------------------------------|



CHORUS
----------------------------------------------------------------------|
----------------------------------------------------------------------|
-88888888888--------------------8-10-10-10-10-10-10-10-10-10-10-10-10-|
-88888888888--x7-8888888888888x-8-10-10-10-10-10-10-10-10-10-10-10-10-|
-66666666666--x7-8888888888888x-6--8--8--8--8--8--8--8--8--8--8--8--8-|
-66666666666--x5-6666666666666x-6--8--8--8--8--8--8--8--8--8--8--8--8-|


CHORUS
--------------------10-10-10-10-10-10-10-10-----------------------|
--------------------11-11-11-11-11-11-11-11-----------------------|
-10-10-10-10--------12-12-12-12-12-12-12-12-x-10------88888888888-|
-10-10-10-10----10--12-12-12-12-12-12-12-12-x--8-x-10-88888888888-|
--8--8--8--8--8-10--10-10-10-10-10-10-10-10-x----x--8-66666666666-|
--8--8--8--8--8--8--10-10-10-10-10-10-10-10-----------66666666666-|


CHORUS
---------------------------------------------------------------------|
---------------------------------------------------------------------|
------------------8-10-10-10-10-10-10-10-10-10-10-10-10--10-10-10-10-|
x7-8888888888888x-8-10-10-10-10-10-10-10-10-10-10-10-10--10-10-10-10-|
x7-8888888888888x-6--8--8--8--8--8--8--8--8--8--8--8--8---8--8--8--8-|
x5-6666666666666x-6--8--8--8--8--8--8--8--8--8--8--8--8---8--8--8--8-|


CHORUS
-------------------------------------------------|
-------------------------------------------------|
-------------------------------------------------|
10-10-10-10-10-10-10-10-10-10-10-10--10-10-10-10-|
10-10-10-10-10-10-10-10-10-10-10-10--10-10-10-10-|
-8--8--8--8--8--8--8--8--8--8--8--8---8--8--8--8-|


INTRO                      VERSE
||------------------------||-----------------------------------------|
||::--------------------::||-----------------------------------------|
||----------333-555-------||----------0----------0---------0---------|
||--555-333---------33-55-||-----8--------8----------8--------8------|
||::--------------------::||-10----10--------10---------10-------10--|
||------------------------||-----------------------------------------|


VERSE
------------------------------------------------------------------|
------------------------------------------------------------------|
------0------0-------0--------------------0-------0-------0-------|
--7------7------7-------7------------8-------8-------8-------8----|
8---6------6------6-------6--------6---6-------6-------6--------6-|
------------------------------------------------------------------|



VERSE
---------------------------------|
---------------------------------|
--------0---------------0--------|
---7-------7-------7-------7-----|
-8---8--------8--9---9---------9-|
---------------------------------|


VERSE two
||---------------------------------------|
||---------------------------------------|
||-----------0---------0---------0-------|
||----8----------8---------8--------8----|
||-10----10--------10--------10-------10-|
||---------------------------------------|


VERSE two
------------------------------------------------------------------|
------------------------------------------------------------------|
------0-------0-------0----------------0-------0--------0---------|
--7------7-------7------7---------8-------8-------8--------8------|
8---8------8-------8------8-----6---6-------6--------6--------6---|
------------------------------------------------------------------|


VERSE two
------------------------------------------------------------------------|
------------------------------------------------------------------------|
--------0---------------0-------------------0---------0---------0-------|
---7------7--------7------7----------8----------8---------8--------8----|
-8---8-------8---9---9-------9----10----10--------10--------10-------10-|
------------------------------------------------------------------------|


VERSE two
-----------------------------------------------------------------------|
-----------------------------------------------------------------------|
----------0------0-----0-----------------0-------0------0--------------|
-----7------7------7-----7---------10-------10-----10------10----------|
--8----8------8------8-----8----7-----7--------7------7-------7--------|
-----------------------------------------------------------------------|


VERSE two
----------------------------------------------BEND----|
-----------------------------------0000000--////////--|
--------0----------------0---------5555555.55555555---|
---8------8---------5-------5-------------------------|
-6---6-------6----3---3--------3----------------------|
------------------------------------------------------|



CHORUS
----------------------------------------------------------------------|
----------------------------------------------------------------------|
-88888888888--------------------8-10-10-10-10-10-10-10-10-10-10-10-10-|
-88888888888--x7-8888888888888x-8-10-10-10-10-10-10-10-10-10-10-10-10-|
-66666666666--x7-8888888888888x-6--8--8--8--8--8--8--8--8--8--8--8--8-|
-66666666666--x5-6666666666666x-6--8--8--8--8--8--8--8--8--8--8--8--8-|


CHORUS
--------------------10-10-10-10-10-10-10-10-----------------------|
--------------------11-11-11-11-11-11-11-11-----------------------|
-10-10-10-10--------12-12-12-12-12-12-12-12-x-10------88888888888-|
-10-10-10-10----10--12-12-12-12-12-12-12-12-x--8-x-10-88888888888-|
--8--8--8--8--8-10--10-10-10-10-10-10-10-10-x----x--8-66666666666-|
--8--8--8--8--8--8--10-10-10-10-10-10-10-10-----------66666666666-|


CHORUS
---------------------------------------------------------------------|
---------------------------------------------------------------------|
------------------8-10-10-10-10-10-10-10-10-10-10-10-10--10-10-10-10-|
x7-8888888888888x-8-10-10-10-10-10-10-10-10-10-10-10-10--10-10-10-10-|
x7-8888888888888x-6--8--8--8--8--8--8--8--8--8--8--8--8---8--8--8--8-|
x5-6666666666666x-6--8--8--8--8--8--8--8--8--8--8--8--8---8--8--8--8-|


CHORUS
-------------------------------------------------|
-------------------------------------------------|
-------------------------------------------------|
10-10-10-10-10-10-10-10-10-10-10-10--10-10-10-10-|
10-10-10-10-10-10-10-10-10-10-10-10--10-10-10-10-|
-8--8--8--8--8--8--8--8--8--8--8--8---8--8--8--8-|


Bridge (play twice)
|---------------------------------------------------------|
|::-----11-------11-------11------10-------10-------10--::|
|----------10-------10---------------10-------10----------|
|----12-------12-------10------12-------12-------12-------|
|::-----------------------------------------------------::|
|---------------------------------------------------------|


Bridge
--------------10-------------------------------------------- -=-=-|
-----11----------11------------10-------13---------13-let--- -x-x-|
--------10----------10------------10-------10------10-ring-- -x-x-|
--12-------12----------12---12-------12-------12-x-12-quick- -x-x-|
------------------------------------------------------------ -x-x-|
------------------------------------------------------------ -----|


INTERLUDE play three times                                     “Oh…”
||------------------------||-----------------------------------------|
||::--------------bend--::||-5555555555555555------------------------|
||----3-3-3--3-X7-7/\7----||-XXXXXXXXXXXXXXXX------------2^3-2-QUICK-|
||----x-x-x--x-XX-X/\X----||-3333333333333333----------3-------REST--|
||::--1-1-1--1-X5-5/\5--::||----------------------0--1---------------|
||------------------------||--------------------3--------------------|


----------
--HEAVY---
--PM------
--======--
--666666--|
--666666--|


CHORUS
------------------------------------------------------|
------------------------------------------------------|
----------------8-10-10-10-10-10-10-10-10-10-10-10-10-|
-8888888888888x-8-10-10-10-10-10-10-10-10-10-10-10-10-|
-8888888888888x-6--8--8--8--8--8--8--8--8--8--8--8--8-|
-6666666666666x-6--8--8--8--8--8--8--8--8--8--8--8--8-|


CHORUS
--------------------10-10-10-10-10-10-10-10-----------------------|
--------------------11-11-11-11-11-11-11-11-----------------------|
-10-10-10-10--------12-12-12-12-12-12-12-12-x-10------88888888888-|
-10-10-10-10----10--12-12-12-12-12-12-12-12-x--8-x-10-88888888888-|
--8--8--8--8--8-10--10-10-10-10-10-10-10-10-x----x--8-66666666666-|
--8--8--8--8--8--8--10-10-10-10-10-10-10-10-----------66666666666-|


CHORUS
---------------------------------------------------------------------|
---------------------------------------------------------------------|
------------------8-10-10-10-10-10-10-10-10-10-10-10-10--10-10-10-10-|
x7-8888888888888x-8-10-10-10-10-10-10-10-10-10-10-10-10--10-10-10-10-|
x7-8888888888888x-6--8--8--8--8--8--8--8--8--8--8--8--8---8--8--8--8-|
x5-6666666666666x-6--8--8--8--8--8--8--8--8--8--8--8--8---8--8--8--8-|


CHORUS
-------------------------------------------------|
-------------------------------------------------|
-------------------------------------------------|
10-10-10-10-10-10-10-10-10-10-10-10--10-10-10-10-|
10-10-10-10-10-10-10-10-10-10-10-10--10-10-10-10-|
-8--8--8--8--8--8--8--8--8--8--8--8---8--8--8--8-|



CHORUS
----------------------------------------------------------------------|
----------------------------------------------------------------------|
-88888888888--10----------------8-10-10-10-10-10-10-10-10-10-10-10-10-|
-88888888888--10-8888888888888x-8-10-10-10-10-10-10-10-10-10-10-10-10-|
-66666666666--x8-8888888888888x-6--8--8--8--8--8--8--8--8--8--8--8--8-|
-66666666666--x8-6666666666666x-6--8--8--8--8--8--8--8--8--8--8--8--8-|


CHORUS
--------------------10-10-10-10-10-10-10-10-----------------------|
--------------------11-11-11-11-11-11-11-11-----------------------|
-10-10-10-10--------12-12-12-12-12-12-12-12-x-10------88888888888-|
-10-10-10-10--X-10--12-12-12-12-12-12-12-12-x--8-x-10-88888888888-|
--8--8--8--8--X-10--10-10-10-10-10-10-10-10-x----x--8-66666666666-|
--8--8--8--8--X--8--10-10-10-10-10-10-10-10-----------66666666666-|


CHORUS
---------------------------------------------------------------------|
---------------------------------------------------------------------|
------------------8-10-10-10-10-10-10-10-10-10-10-10-10--10-10-10-10-|
x7-8888888888888x-8-10-10-10-10-10-10-10-10-10-10-10-10--10-10-10-10-|
x7-8888888888888x-6--8--8--8--8--8--8--8--8--8--8--8--8---8--8--8--8-|
x5-6666666666666x-6--8--8--8--8--8--8--8--8--8--8--8--8---8--8--8--8-|


CHORUS
-------------------------------------------------|
-------------------------------------------------|
-------------------------------------------------|
10-10-10-10-10-10-10-10-10-10-10-10--10-10-10-10-|
10-10-10-10-10-10-10-10-10-10-10-10--10-10-10-10-|
-8--8--8--8--8--8--8--8--8--8--8--8---8--8--8--8-|


OUTRO
-------------------------------------------------|
-------------------------------------------------|
--------3--5--------------3-5--------------------|
--5---3------3^5--5---5-3-----3^5-(5)-let-ring---|
-------------------------------------------------|
-------------------------------------------------|
comments
print report bad tab
5 comments total. Showing first comments.
+1 reply
ionizedcarcass wrote on August 18 2012, 10:13 am

What tuning is this in?

+1 reply
AlienFreak77 wrote on August 29 2012, 02:37 pm

i do it in standard tuning. Best way to match AFIs album tuning is to use one of the opening chords in the tab, then find it location in time within the song, and tune your guitar to that chord, then bam, you are now tuned with afi. usually, afi is usually tuned like a half step to a whole step down in there standard tuning, so you could try that. but i know most of this song is right because i have watched live recordings of jade doing this and that helped, but i figured most of this out by ear. but hey, if u find any errors, let me know. i will apply your fix to them and give u credit.

0 reply
ionizedcarcass wrote on September 16 2012, 02:35 pm

It sounds correct, i don't think that there's anything wrong with this tab. :D

I want to post or [tab]
guest
You may want to rate the tab now too:
select rating
Please do not post tabs as comments. Select "correction" instead!