Oops, an error
Loading. Please wait.

Bleed Black Bass Tab

version 2
version 2

Whole song

Interactive

by AFI
1,781 views 1 this week
no commentswrite comment
1 2 3 4 5
accurate
x 7
add to favorites
launch autoscroll
font size
0
reset
guitar tuner
Tab Pro tools
  • play this tab
  • loop segment
  • change instrument
  • show fretboard
  • metronome
Autoscroll
slow
fast
+/-
esc
set tempo
stop
Contributor
AFI - Bleed Black
Tuning - E A D G
Intro 
|--------------------------------------------------------| 
|--------------------------------------------------------| 
|------4----------4----------4----------4-4-4--4-4-4-4-2-| 
|-0---/-----0----/-----0----/-----0----/-----------------| 

Verse (x3) 
|--------------------------------------------------------------------------|
|--------------------------------------------------------------------------| 
|-------------------------------------------------------7-7-7-7-7--7-7-7---| 
|-4-4-4--4-4-4-4-2--4-4-4--4-4-4-4-2--4-4-4--4-4-4-4-2-------------------2-| 

Pre Chorus 
|---------------------------------------------------------| 
|---------------------------------------------------------| 
|-7---2---6---7---2---4-6-7---2----------------2-2-2--2-2-| 
|---4---4---4---4---4-------4---4-2-4-0-0-0--0------------| 

|---------------------------------------------------------| 
|---------------------------------------------------------| 
|-7---2---6---7---2---4-6-7---2----------------2-2-2--2-2-| 
|---4---4---4---4---4-------4---4-2-4-0-0-0--0------------|

|------------------------------| 
|------------------------------| 
|-------------/9-9-9-9-9-9-9-9-| 
|-2-2-2-2-2-2------------------| 

Chorus 
|-----------------------------------------| 
|-----------------------------------------| 
|-2-2-2--2--------------------------------| 
|----------2-2-2--2-2-0-0-0--0-4-4-4--4-4-| 

|-----------------------------------------| 
|-----------------------------------------| 
|-2-2-2--2--------------------------------| 
|----------2-2-2--2-2-4-4-4-4-4-4-4-4-4---| 

|-----------------------------------------| 
|-----------------------------------------| 
|-2-2-2--2--------------------------------| 
|----------2-2-2--2-2-0-0-0--0-4-4-4--4-4-| 

|---------------------------------| 
|---------------------------------| 
|-2-2-2--2------------7---2----11-| 
|----------2-2-2--2-2---4---4/----| 

Repeat Verse 

Repeat Pre Chorus 

Repeat Chorus 

Bridge (wait 8 measures) 
|-------------------------------| 
|-/6--6-5--5-4------------------| 
|-------------------4-4-4-6-4---| 
|---------------4/6-----------7-| 

|-----------------------------------------------------| 
|-----------------------------------------------------| 
|-------------2-2-2-4-2------------------/6-6-6-6-6-6-| 
|-0-0-0-0-2/4-----------4-11-11-11-11-11--------------| 

|-------------------------------------------------| 
|-------------------------------------------------| 
|-------------------------------------4-4-4-6-4---| 
|-4-4-4-4-4-4-3-3-3-3-3-3-2-2-2-2-4/6-----------7-| 

|--------------------------------------------------------| 
|--------------------------------------------------------| 
|-------------2-2-2-4-2------------------/6-6-6/10-10-10-| 
|-0-0-0-0-2/4-----------4-11-11-11-11-11-----------------| 

|---------------------------------------------------------------------------|
|---------------------------------------------------------------------------| 
|-11<-sustain for days then->9/11-11-11-11-11-11-11-11-11-11-11-11-11-11-11-|
|---------------------------------------------------------------------------| 

Repeat Chorus Twice 

Substitute this fill at the end of first chorus 
|-------------------------------------------------| 
|-------------------------------------------------| 
|-2-2-2--2------------9/11-11-9-9-7-7-6-6-4/6-6-6-| 
|----------2-2-2--2-2-----------------------------|
comments
print report bad tab
I want to post or [tab]
guest
You may want to rate the tab now too:
select rating
Please do not post tabs as comments. Select "correction" instead!