Oops, an error
Loading. Please wait.

Bleed Black Tab

version 3
version 3

Intro

Whole song

Interactive

by AFI
19,091 views 27 this week
19 commentsread comments
1 2 3 4 5
excellent!
x 40
add to favorites
launch autoscroll
font size
0
reset
how to read this tab
guitar tuner
Tab Pro tools
  • play this tab
  • loop segment
  • change instrument
  • show fretboard
  • metronome
Autoscroll
slow
fast
+/-
esc
set tempo
stop
Contributor
Band: AFI (A Fire Inside)
Album: Sing The Sorrow
Song: Bleed Black (Track 3)
Note: This song (and every song on the album, except "The Leaving Song")
is tuned a half-step flat.
Tabbed By: LedZep420 (dm_420@hotmail.com)


Intro:
E------------------|------------------|------------------|------------------|
B------------------|------------------|------------------|------------------|
G-9---9--9-9---9---|-9---9--9-9---9---|-9---9--9-9---9---|-9---9--9-9---9---|
D---7---7----7---7-|---7---7----7---7-|---7---7----7---7-|---7---7----7---7-|
A------------------|------------------|------------------|------------------|
E------------------|------------------|------------------|------------------|

E-----------------------|------------------|------------------|
B-----------------------|------------------|------------------|
G-10---10--10-10---10---|-7---7--7-7---7---|-9---9--9-9---9---|
D----7----7------7----7-|---7---7----7---7-|---7---7----7---7-|
A-----------------------|------------------|------------------|
E-----------------------|------------------|------------------|

E------------------|-----------------------|------------------|
B------------------|-----------------------|------------------|
G-7---7--7-7---7---|-10---10--10-10---10---|-7---7--7-7---7---|
D---7---7----7---7-|----7----7------7----7-|---7---7----7---7-|
A------------------|-----------------------|------------------|
E------------------|-----------------------|------------------|
 (Distortion)
E-----------------|-----------------|
B-----------------|-----------------|
G-----------------|-9-9-9-9-9-9-9-9-|
D-----------------|-7-7-7-7-7-7-7-7-|
A-0-0-0-0-0-0-0-0-|-0-0-0-0-0-0-0-0-|
E-----------------|-----------------|

Verse:
E--------------|--------------|--------------|-----------------------|
B--------------|--------------|--------------|-----------------------|
G-----9--7-7-7-|-----9--5-5-5-|-----9--7-7-7-|---9------9-----9------|
D-----7--7-7-7-|-----7--7-7-7-|-----7--7-7-7-|-----10-----10----10---|
A-0-0-0--0-0-0-|-0-0-0--0-0-0-|-0-0-0--0-0-0-|-8------8-----8------8-|
E--------------|--------------|--------------|-----------------------|

E--------------|--------------|--------------|------------------------|
B--------------|--------------|--------------|------------------------|
G-----9--7-7-7-|-----9--5-5-5-|-----9--7-7-7-|---9------9-----12------|
D-----7--7-7-7-|-----7--7-7-7-|-----7--7-7-7-|-----10-----10-----10---|
A-0-0-0--0-0-0-|-0-0-0--0-0-0-|-0-0-0--0-0-0-|-8------8-----8-------8-|
E--------------|--------------|--------------|------------------------|

E--------------|--------------|--------------|------------------------|
B--------------|--------------|--------------|------------------------|
G-----9--7-7-7-|-----9--5-5-5-|-----9--7-7-7-|---9------9-----12------|
D-----7--7-7-7-|-----7--7-7-7-|-----7--7-7-7-|-----10-----10-----10---|
A-0-0-0--0-0-0-|-0-0-0--0-0-0-|-0-0-0--0-0-0-|-8------8-----8-------8-|
E--------------|--------------|--------------|------------------------|

E---------3-3-3-3-|
B---------3-3-3-3-|
G---------4-4-4-4-|
D-5-5-5-5-5-5-5-5-|
A-5-5-5-5-5-5-5-5-|
E-3-3-3-3-3-3-3-3-|

Pre-Chorus:
E---------------------|---------------------|---------------------|
B---------------------|---------------------|---------------------|
G---------------------|---------------------|---------------------|
D-------------000-2-2-|-------------000-2-2-|-------------000-2-2-|
A-888-000-333-000-0-0-|-888-000-333-000-0-0-|-888-000-333-000-0-0-|
E---------------------|---------------------|---------------------|

E--------------|---------------------|---------------------|
B--------5-5-5-|---------------------|---------------------|
G--------5-5-5-|---------------------|---------------------|
D-3-3-3--5-5-5-|-------------000-2-2-|-------------000-2-2-|
A-3-3-3--3-3-3-|-888-000-333-000-0-0-|-888-000-333-000-0-0-|
E-1-1-1--------|---------------------|---------------------|

E---------------------|--------------|---------3-3-3-3-|
B---------------------|--------5-5-5-|---------3-3-3-3-|
G---------------------|--------5-5-5-|---------4-4-4-4-|
D-------------000-2-2-|-3-3-3--5-5-5-|-5-5-5-5-5-5-5-5-|
A-888-000-333-000-0-0-|-3-3-3--3-3-3-|-5-5-5-5-5-5-5-5-|
E---------------------|-1-1-1--------|-3-3-3-3-3-3-3-3-|

Chorus:
E--------3--3-3-|-1-1-1--0--0-0-|--------3--3-3-|----------------|
B-5-5-5--3--3-3-|-1-1-1--1--1-1-|-5-5-5--3--3-3-|----------------|
G-5-5-5--4--4-4-|-2-2-2--2--2-2-|-5-5-5--4--4-4-|-4-4-4-5-5-5-5--|
D-5-5-5--5--5-5-|-3-3-3--2--2-2-|-5-5-5--5--5-5-|-X-X-X-X-X-X-X--|
A-3-3-3--5--5-5-|-3-3-3--0--0-0-|-3-3-3--5--5-5-|-3-3-3-3-3-3-3--|
E--------3--3-3-|-1-1-1---------|--------3--3-3-|----------------|

E--------3--3-3-|-1-1-1---------|--------3--3-3-|-------------------|
B-5-5-5--3--3-3-|-1-1-1--1--1-1-|-5-5-5--3--3-3-|-------------------|
G-5-5-5--4--4-4-|-2-2-2--2--2-2-|-5-5-5--4--4-4-|-------------------|
D-5-5-5--5--5-5-|-3-3-3--2--2-2-|-5-5-5--5--5-5-|-------------000-2-|
A-3-3-3--5--5-5-|-3-3-3--0--0-0-|-3-3-3--5--5-5-|-888-000-333-000-0-|
E--------3--3-3-|-1-1-1---------|--------3--3-3-|-------------------|

Bridge:
 (Acoustic)
E-------------|-------------|-------------|-------------|-------------|
B-------------|-------------|-------------|-------------|-------------|
G-------------|-------------|-------------|-------------|-------------|
D-------------|-------------|-------------|-7-7-7-7-7---|-------------|
A-7-7-7-7-7-0-|-7-7-7-7-7-0-|-5-5-5-5-5-0-|-5-5-5-5-5-0-|-3-3-3-3-3-0-|
E-5-5-5-5-5-0-|-4-4-4-4-4-0-|-3-3-3-3-3-0-|-----------0-|-1-1-1-1-1-0-|

E-------------|-------------|---5----------|
B-------------|-------------|-----5--------|
G-------------|-------------|-------5-----o|
D-5-5-5-5-5---|-------------|---------7---o|
A-3-3-3-3-3-0-|-2-2-2-2-2-0-|--------------|
E-----------0-|-0-0-0-0-0-0-|-5---------0--|

 (Electric)
E-------------|-------------|-3-3-3-3-3---|-5-5-5-5-5---|
B-------------|-------------|-3-3-3-3-3---|-7-7-7-7-7---|
G-------------|-------------|-4-4-4-4-4---|-7-7-7-7-7---|
D-7-7-7-7-7---|-6-6-6-6-6---|-5-5-5-5-5---|-7-7-7-7-7---|
A-7-7-7-7-7-0-|-7-7-7-7-7-0-|-5-5-5-5-5-0-|-5-5-5-5-5-0-|
E-5-5-5-5-5-0-|-4-4-4-4-4-0-|-3-3-3-3-3-0-|-5-5-5-5-5-0-|

E-1-1-1-1-1---|-3-3-3-3-3---|----------------|--------------------|
B-1-1-1-1-1---|-5-5-5-5-5---|----------------|--------------------|
G-2-2-2-2-2---|-5-5-5-5-5---|------/14-14-14-|-13-13-13-13-13-13-o|
D-3-3-3-3-3---|-5-5-5-5-5---|-------X--X--X--|-X--X--X--X--X--X--o|
A-3-3-3-3-3-0-|-3-3-3-3-3-0-|-2-2--/12-12-12-|-11-11-11-11-11-11--|
E-1-1-1-1-1-0-|-3-3-3-3-3-0-|-0-0-0-0--0--0--|-0--0--0--0--0--0---|

Interlude:
 (Clean)
E----8------8---|---8-----8---|---8-----8---|-------10-------10-|
B-10-----10-----|-9-----9-----|-8-----8-----|----10-------10----|
G------9------9-|-----9-----9-|-----9-----9-|-11-------11-------|
D---------------|-------------|-------------|-------------------|
A---------------|-------------|-------------|-------------------|
E---------------|-------------|-------------|-------------------|

E-------8-------8-|-----8-----8-|-12--|---|------------------|
B----10------10---|---8-----8---|-12--|---|------------------|
G-10------10------|-9-----9-----|-13--|---|-9---9--9-9---9---|
D-----------------|-------------|-----|---|---7---7----7---7-|
A-----------------|-------------|-----|---|------------------|
E-----------------|-------------|-----|---|------------------|

 (Distortion)
E-----------------|
B-----------------|
G-9-9-9-9-9-9-9-9-|
D-7-7-7-7-7-7-7-7-|
A-0-0-0-0-0-0-0-0-|
E-----------------|

Ending:
E--------3--3-3-|-1-1-1--0--0-0-|--------3--3-3-|----------------|
B-5-5-5--3--3-3-|-1-1-1--1--1-1-|-5-5-5--3--3-3-|----------------|
G-5-5-5--4--4-4-|-2-2-2--2--2-2-|-5-5-5--4--4-4-|-4-4-4-5-5-5-5--|
D-5-5-5--5--5-5-|-3-3-3--2--2-2-|-5-5-5--5--5-5-|-X-X-X-X-X-X-X--|
A-3-3-3--5--5-5-|-3-3-3--0--0-0-|-3-3-3--5--5-5-|-3-3-3-3-3-3-3--|
E--------3--3-3-|-1-1-1---------|--------3--3-3-|----------------|

E--------3--3-3-|-1-1-1---------|--------3--3-3-|--------12-12-12-12-|
B-5-5-5--3--3-3-|-1-1-1--1--1-1-|-5-5-5--3--3-3-|-10-10--13-13-13-13-|
G-5-5-5--4--4-4-|-2-2-2--2--2-2-|-5-5-5--4--4-4-|-10-10--14-14-14-14-|
D-5-5-5--5--5-5-|-3-3-3--2--2-2-|-5-5-5--5--5-5-|-10-10--------------|
A-3-3-3--5--5-5-|-3-3-3--0--0-0-|-3-3-3--5--5-5-|-8--8---------------|
E--------3--3-3-|-1-1-1---------|--------3--3-3-|--------------------|

E--------3--3-3-|-1-1-1--0--0-0-|--------3--3-3-|----------------|
B-5-5-5--3--3-3-|-1-1-1--1--1-1-|-5-5-5--3--3-3-|----------------|
G-5-5-5--4--4-4-|-2-2-2--2--2-2-|-5-5-5--4--4-4-|-4-4-4-5-5-5-5--|
D-5-5-5--5--5-5-|-3-3-3--2--2-2-|-5-5-5--5--5-5-|-X-X-X-X-X-X-X--|
A-3-3-3--5--5-5-|-3-3-3--0--0-0-|-3-3-3--5--5-5-|-3-3-3-3-3-3-3--|
E--------3--3-3-|-1-1-1---------|--------3--3-3-|----------------|

E--------3--3-3-|-1-1-1---------|--------3--3-3-|--------------------|
B-5-5-5--3--3-3-|-1-1-1--1--1-1-|-5-5-5--3--3-3-|--------------------|
G-5-5-5--4--4-4-|-2-2-2--2--2-2-|-5-5-5--4--4-4-|--------------------|
D-5-5-5--5--5-5-|-3-3-3--2--2-2-|-5-5-5--5--5-5-|-------------000----|
A-3-3-3--5--5-5-|-3-3-3--0--0-0-|-3-3-3--5--5-5-|-888-000-333-000-7\-|
E--------3--3-3-|-1-1-1---------|--------3--3-3-|-----------------5\-|

Background fill:
 (Played behind measures 9-15 of the ending)
E-8------10-------|-8--------12-------|-8------10-------|
B---8-------12----|---10--------13----|---8-------12----|
G-----9--------12-|------10--------14-|-----9--------12-|
D-----------------|-------------------|-----------------|
A-----------------|-------------------|-----------------|
E-----------------|-------------------|-----------------|

E-12---------|-8------10-------|-8--------12-------|-8------10-------|
B-----13-----|---8-------12----|---10--------13----|---8-------12----|
G---------14-|-----9--------12-|------10--------14-|-----9--------12-|
D------------|-----------------|-------------------|-----------------|
A------------|-----------------|-------------------|-----------------|
E------------|-----------------|-------------------|-----------------|
comments
print report bad tab
19 comments total. Showing first comments.
+1 reply
guywithguitar wrote on March 24 2004, 12:00 am

Damn man, I was gonna post a tab for this song, a really GOOD tab, but you beat me to it. yours is almost exactly like mine. some minor errors, but definately worth a five. Good job.

0 reply
!_ToToy_! wrote on March 28 2004, 12:00 am

man this is perfect nothing more its perfect

0 reply
David Nguyen wrote on April 6 2004, 12:00 am

YOu can never be perfect but its pretty damn accurate nice work.

I want to post or [tab]
guest
You may want to rate the tab now too:
select rating
Please do not post tabs as comments. Select "correction" instead!