Oops, an error
Loading. Please wait.

Bleed Black Tab

version 4
version 4

Intro

Whole song

Interactive

by AFI
757 views 3 this week
1 commentread comment
1 2 3 4 5
accurate
x 1
add to favorites
launch autoscroll
font size
0
reset
how to read this tab
guitar tuner
Tab Pro tools
  • play this tab
  • loop segment
  • change instrument
  • show fretboard
  • metronome
Autoscroll
slow
fast
+/-
esc
set tempo
stop
Contributor
this is 95% right email me if theres owt wrong tuned half a step down this is 
important if ur playing along to ur cd or shittie bootleg enjoy
Intro (PLAY 4 X's) 

Eb|------------------||
Bb|5---5---55---5----||
Gb|--2---2----2---2--||
Db|------------------||
Ab|------------------||
Eb|------------------||



   intro continued
Eb|---------------------------------------------------------------------------
Bb|-6---6---66---6--- -3---3---33---3---- 5---5---55---5--- 3---3---33---3----
Gb|---2---2----2---2- ---2---2----2---2---- 2---2----2---2-- -2---2----2---2--
Db|---------------------------------------------------------------------------
Ab|---------------------------------------------------------------------------
Eb|---------------------------------------------------------------------------

     inrto end
Eb|-------------------------------------
Bb|-6---6---66---6-- -3---3---33---3----
Gb|---2---2----2---2----2---2----2---2--
Db|-------------------------------------
Ab|-------------------------------------
Eb|-------------------------------------

   climb before verse riffs
Eb|-------------------------------------------
Bb|-------------------------------------------
Gb|------------------9999999999999999----(OH)-
Db|-7777777777777777 7777777777777777---------
Ab|-0000000000000000 0000000000000000---------
Eb|-------------------------------------------



   VERSE PARTS (no repeats)
Eb|----------------------------------------------------------------------------
Bb|-------------------------------------------------------5-----5-----5--------
Gb|---9-x-777-7777-----9-x-555-5555------9-x-777-7777-x-----5-----5-----5------
Db|77-7-x-777-7777--77-7-x-777-7777---77-7-x-777-7777-x-3-----3-----3-----3----
Ab|00-0-o-000-0000--00-0-x-000-0000---00-0-o-000-0000--------------------------
Eb|----------------------------------------------------------------------------

     "I am exploring the inside....."  Lord Davey Havok speaketh
Eb|----------------------------------------------------------------------3--
Bb|-------------------------------------------------------5-----5-----------
Gb|---9-x-777-7777-----9-x-555-5555------9-x-777-7777-x------5-----5--------
Db|77-7-x-777-7777--77-7-x-777-7777---77-7-x-777-7777-x-3------3------3-----
Ab|00-0-o-000-0000--00-0-x-000-0000---00-0-o-000-0000-----------------------
Eb|-------------------------------------------------------------------------

Eb|----------------------------------------------------------------3-----------
Bb|---------------------------------------------------------5-----------5555---
Gb|---9---777-7777-----9-x-555-5555-x-----9---777-7777-x------5---------5555---
Db|77-7-x-777-7777--77-7-x-777-7777-x--77-7-x-777-7777-x-3------3-----3-3333---
Ab|00-0-o-000-0000--00-0-x-000-0000-o--00-0-o-000-0000-------------------------
Eb|----------------------------------------------------------------------------

   verse outro
Eb|-3-3-3-3-3-3-3-3-3-3-3-3-3-3-3-3-- 
Bb|-3-3-3-3-3-3-3-3-3-3-3-3-3-3-3-3--
Gb|-4-4-4-4-4-4-4-4-4-4-4-4-4-4-4-4--
Db|-5-5-5-5-5-5-5-5-5-5-5-5-5-5-5-5--
Ab|-5-5-5-5-5-5-5-5-5-5-5-5-5-5-5-5--
Eb|-3-3-3-3-3-3-3-3-3-3-3-3-3-3-3-3--

     pre-chorus  ("I'm hovering throughout time...")
Eb|-----------------------------------------------------------
Bb|-----------------------------------------------------------
Gb|---------------222-----------------222---------------222---
Db|---------------222-----------------222---------------222---
Ab|-888-000-333-0-000--888-000-333-0-000--888-000-333-0-000---
Eb|-----------------------------------------------------------


("In these days...")
Eb|-1-1111----------
Bb|-1-1111-555-555x-    
Gb|-2-2222-555-555x-   
Db|-3-3333-555-555x-
Ab|-3-3333-333-333x-
Eb|-1-1111----------

Eb|-----------------------------------------------------------
Bb|-----------------------------------------------------------
Gb|--------------222---------------222-----------------222----
Db|--------------222---------------222-----------------222----
Ab|-888-000-333-0000--888-000-333-0000--888-000-3^--00-000----
Eb|---------------------------------------------bend----------

Eb|----------------------------------------------
Bb|---------555-5555--------------------------
Gb|-2-2222--555-5555-4-4-4-X-1212121212121212-
Db|-3-3333--555-5555-5-5-5-X-1212121212121212-
Ab|-3-3333--333-3333-5-5-5-X-1010101010101010-
Eb|-1-1111-----------3-3-3-X------------------



CHORUS ("if you listen...LISTEN LISTEN")                 "beat by beat"

Eb|---------333-3333-1-111-x--0-00-00000---------333-3333---------------
Bb|-5-5-5x--333-3333-1-111-x--1-11-11111--5-5-5x-333-3333---------------
Gb|-5-5-5x--444-4444-2-222-x--2-22-22222--5-5-5x-444-4444--5--4--5------
Db|-5-5-5x--555-5555-3-333-x--2-22-22222--5-5-5x-555-5555--7--7--7------
Ab|-3-3-3x--555-5555-3-333-x--0-00-00000--3-3-3x-555-5555--0--0--0------
Eb|---------333-3333-1-111-----------------------333-3333---------------



Eb|---------333-3333-1-111-x-0-00-0000---------333-3333-------------------------
Bb|-5-5-5x--333-3333-1-222-x-1-11-1111--5-5-5x-333-3333-------------------------
Gb|-5-5-5x--444-4444-2-333-x-2-22-2222--5-5-5x-444-4444----------------9-quick -
Db|-5-5-5x--555-5555-3-333-x-2-22-2222--5-5-5x-555-5555--------------777--rest--
Ab|-3-3-3x--555-5555-3-333-x-0-00-0000--3-3-3x-555-5555-888-000-333-0000--------
Eb|---------333-3333-1-111---------------------333-3333-------------------------


PLAY ALL OF THE ABOVE ONCE AGAIN--- STARTING W/ VERSE TO CHORUS 
'CEPT DON'T REST AFTER CHORUS, JUST GO RITE INTO BRIDGE ACOUSTIC PART!


  BRIDGE (ACOUSTIC PART) PLAY 2 TIMES
Eb|------------------------------------------------------5-----------
Bb|-----------------------------------------x--------------5---------
Gb|------------------------------------55555x----------------5-------
Db|----------------------33333---------55555x------------------7-x--- 
Ab|-333330-777770-555550-555550-333330-33333---222222-0----------x---
Eb|-555550-444440-333330------0-11111----------000000----------------

    ELECTRIC BRIDGE PART (PLAY 2 TIMES)
Eb|------------------------------------------------------------------------------
Bb|------------------------------------------------------------------------------
Gb|------------------------------------555555-------14-14-14--13-13-13-13-13-13--
Db|---------------555555-333333-333333-555555--222-------------------------------
Ab|-333333-777777-555555-555555-333333-333333--222--12-12-12--11-11-11-11-11-11--
Eb|-555555-444444-333333--------111111---------000-------------------------------


GUITAR TWO PLAYS THESE OCTAVE CHORDS UNDER ELECTRIC BRIDGE PART's  SECOND TIME through

Eb|--555555--444444--777777--888888-121212121212--888888--777-888-777777------
Bb|---------------------------------------------------------------------------
Gb|--222222--111111--444444--555555--9-9-9-9-9-9--555555--444-555-444444------
Db|---------------------------------------------------------------------------
Ab|---------------------------------------------------------------------------
Eb|---------------------------------------------------------------------------

BRIDGE OUTRO (acoustic)

Eb|-------0-------0--------0-------0-------0-------0--------10------10--------
Bb|----13------13-------13------13------13------13-------10-------10----------
Gb|-14------14-------13------13------12------12-------11-------11-------------
Db|---------------------------------------------------------------------------
Ab|---------------------------------------------------------------------------
Eb|---------------------------------------------------------------------------

                                    **
Eb|-------8-------8------8-----8---(12)---------------------------------------
Bb|----10------10------8-----8-----(12)--------------5---5---55---5-----------
Gb|-10------10-------9-----9--------13-----------------2---2----2---2---------
Db|---------------------------------------------------------------------------
Ab|---------------------------------------------------------------------------
Eb|---------------------------------------------------------------------------
                                    **only 12's are harmonics, 13 is strummed



Eb|------------------
Bb|------------------
Gb|------------------
Db|-7777777777777777-
Ab|-0000000000000000-
Eb|------------------


CHORUS ("if you listen...LISTEN LISTEN")                 "beat by beat"
Eb|---------333-3333-1-111-x--0-00-00000----------333-3333-------------
Bb|-5-5-5x--333-3333-1-111-x--1-11-11111--5-5-5x--333-3333-------------
Gb|-5-5-5x--444-4444-2-222-x--2-22-22222--5-5-5x--444-4444--5-4-5------
Db|-5-5-5x--555-5555-3-333-x--2-22-22222--5-5-5x--555-5555--7-7-7------
Ab|-3-3-3x--555-5555-3-333-x--0-00-00000--3-3-3x--555-5555--0-0-0------
Eb|---------333-3333-1-111------------------------333-3333-------------



Eb|---------333-3333-1-111-x-0-00-0000---------333-3333---------12-12-12-12-12--
Bb|-5-5-5x--333-3333-1-222-x-1-11-1111--5-5-5x-333-3333---------13-13-13-13-13--
Gb|-5-5-5x--444-4444-2-333-x-2-22-2222--5-5-5x-444-4444---------14-14-14-14-14--
Db|-5-5-5x--555-5555-3-333-x-2-22-2222--5-5-5x-555-5555-7777777-14-14-14-14-14--
Ab|-3-3-3x--555-5555-3-333-x-0-00-0000--3-3-3x-555-5555-0000000-12-12-12-12-12--
Eb|---------333-3333-1-111---------------------333-3333-------------------------


 outro ***(guitar-2 Outro-solo starts here)

Eb|---------333-3333-1-111-x--0-00-00000---------333-3333----------------
Bb|-5-5-5x--333-3333-1-111-x--1-11-11111--5-5-5X-333-3333----------------
Gb|-5-5-5x--444-4444-2-222-x--2-22-22222--5-5-5X-444-4444--5-4-5--555----
Db|-5-5-5x--555-5555-3-333-x--2-22-22222--5-5-5X-555-5555--7-7-7--777----
Ab|-3-3-3x--555-5555-3-333-x--0-00-00000--3-3-3X-555-5555--0-0-0--000----
Eb|---------333-3333-1-111-----------------------333-3333----------------

Eb|---------333-3333-1-111-x-0-00-0000---------333-3333-------------------------
Bb|-5-5-5x--333-3333-1-222-x-1-11-1111--5-5-5x-333-3333-------------------------
Gb|-5-5-5x--444-4444-2-333-x-2-22-2222--5-5-5x-444-4444--------------222---THE--
Db|-5-5-5x--555-5555-3-333-x-2-22-2222--5-5-5x-555-5555--------------222---END--
Ab|-3-3-3x--555-5555-3-333-x-0-00-0000--3-3-3x-555-5555-888-000-333-0000--------
Eb|---------333-3333-1-111---------------------333-3333-------------------------



***GUITAR-2 outro SOLO

Eb-8-------8/10-----------8---------/12--------8------8/10-------12-------
Bb------8--------12p^10--------10----------13-------8---------13---13-----
Gb---10--------12-----------10---------14--------10--------12--------14---
Db------------------------------------------------------------------------
Ab------------------------------------------------------------------------
Eb------------------------------------------------------------------------


Eb--8------8/10--------------8-------/12---------8-------8/10--------------
Bb-------8---------12p^10--------10---------13--------8----------(13)-Ring-
Gb----10---------12------------10--------14--------10---------14-------out-THE
Db-------------------------------------------------------------------------END
Ab-------------------------------------------------------------------------
Eb-------------------------------------------------------------------------
comments
We did not receive enough feedback on this tab! Please rate:
print report bad tab
1 2 3 4 5
1 comment total.
0 reply
DownbëloW wrote on March 21 2006, 06:13 pm

Overall really good. Afi is the best band ever! Just a few mistakes here and there, but its a great tab to learn off of.

I want to post or [tab]
guest
You may want to rate the tab now too:
select rating
Please do not post tabs as comments. Select "correction" instead!