Oops, an error
Loading. Please wait.

But Home Is Nowhere Tab

version 2
version 2

Whole song

Interactive

by AFI
656 views 1 this week
no commentswrite comment
1 2 3 4 5
please rate
add to favorites
launch autoscroll
font size
0
reset
how to read this tab
guitar tuner
Autoscroll
slow
fast
+/-
esc
set tempo
stop
Help us to improve Ultimate-Guitar.com Take our survey!
×
Author
Difficulty
novice
============================================================================
                        AFI - But Home Is Nowhere
============================================================================
Tuning: Standard Tuning (high e to low E) eBGDAE
Artist: AFI
Album: Sing The Sorrow
Song: But Home Is Nowhere(Hidden Track)
Date: 01/19/08
Tabbed By: -kinslayer-
Email Adress: punkhunter@hotmail.com
(email me with any questions regarding this tab)

Intro/Verse:
e|---------------|---------------|---------------|---------------|\--- /
B|---------------|---------------|---------------|-------------------- / \
G|0-0-0-0-0-0-0-0|0-0-0-0-0-0-0-0|0-0-0-0-0-0-0-0|0-0-0-0-0-0-0-0|  \- / x3
D|5-5-5-5-5-5-5-5|5-5-5-5-5-5-5-5|8-8-8-8-8-8-8-8|3-3-3-3/7-7-7-7| --- /
A|---------------|---------------|---------------|---------------|---- /
E|---------------|---------------|---------------|-------------------- /
P.M.*************************************************************

e|---------------|----------------|----------------|---------------|
B|---------------|----------------|----------------|---------------|
G|0-0-0-0-0-0-0-0|0-0-0-0-0-0-0-0-|0-0-0-0-0-0-0-0-|---0-------0---|
D|5-5-5-5-5-5-5-5|5-5-5-5-5-5-5-5/|8-8-8-8-8-8-8-8\|-3---33/7---77-|
A|---------------|----------------|----------------|---------------|
E|---------------|----------------|----------------|---------------|

e|---------------|---------------|---------------|-----------------|
B|---------------|---------------|---------------|-----------------|
G|3-3-3-3-3-3-3-3|3-3-3-3-3-3-3-0|7-7-7-7-7-7-7-0|-2-2-2-0-5-5-5-0-|
D|5-5-5-5-5-5-5-5|5-5-5-5-5-5-5-0|8-8-8-8-8-8-8-0|-3-3-3-0-7-7-7-0-|
A|---------------|---------------|---------------|-----------------|
E|---------------|---------------|---------------|-----------------|
P.M.***************************************************************

e|---------------|---------------|--------|------------|
B|---------------|---------------|--------|---------3--|
G|3-3-3-3-3-3-3-3|3-3-3-3-3-3----|--------|-3-3-3-3-3--|
D|5-5-5-5-5-5-5-5|5-5-5-5-5-5----|3--3----|-5-5-5-5-5--|
A|---------------|-----------0-0-|3--3--00|-5-5-5-5-5--|
E|---------------|-----------0-0-|1--1--00|-3-3-3-3-3--|
P.M.*********

Chorus:
e|----------|--------------|------------|------------|
B|----------|--------------|------------|------------|
G|7--77-----|2--2--2-2-----|3-3-3\2-2-2/|5-5-5\3-3-3-|
D|8--88-----|3--3--3-3-----|5-5-5\3-3-3/|7-7-7\5-5-5-|
A|8--88-0-0-|3--3--3-3-0-0-|------------|-----------0|
E|6--66-0-0-|1--1--1-1-0-0-|------------|-----------0|

e|----------|------------|------------|---------------|
B|----------|------------|------------|---------------|
G|7--77-----|2--2--22----|3-3-3\2-2-2/|8--8--8-\7-7-7-|
D|8--88-----|3--3--33----|5-5-5\3-3-3/|10-10-10\8-8-8-|
A|8--88-0-0-|3--3--33-0-0|------------|---------------|
E|6--66-0-0-|1--1--11-0-0|------------|---------------|

e|----------|--------------|------------|------------|
B|----------|--------------|------------|------------|
G|7--77-----|2--2--2-2-----|3-3-3\2-2-2/|5-5-5\3-3-3-|
D|8--88-----|3--3--3-3-----|5-5-5\3-3-3/|7-7-7\5-5-5-|
A|8--88-0-0-|3--3--3-3-0-0-|------------|-----------0|
E|6--66-0-0-|1--1--1-1-0-0-|------------|-----------0|

e|----|----|----------|-3-3-3-3-3-3-|
B|----|6---|----------|-3-3-3-3-3-3-|
G|7---|7---|-------3-3|-3-3-3-3-3-3-|
D|8---|7---|5--5-5-5-5|-5-5-5-5-5-5-|
A|8-0-|5-0-|5--5-5-5-5|-5-5-5-5-5-5-|
E|6-0-|5-0-|3--3-3-3-3|-3-3-3-3-3-3-|

Pre-Verse/Second Verse:
e|---------------|----------------|----------------|----------------|
B|---------------|----------------|----------------|----------------|
G|0-0-0-0-0-0-0-0|0-0-0-0-0-0-0-0-|0-0-0-0-0-0-0-0\|0-0-0-0-0-0-0-0-|
D|5-5-5-5-5-5-5-5|5-5-5-5-5-5-5-5/|8-8-8-8-8-8-8-8\|3-3-3-3/7-7-7-7\|
A|---------------|----------------|----------------|----------------|
E|---------------|----------------|----------------|----------------|
P.M.****************************************************************

e|---------------|----------------|---------------|----------------|
B|---------------|----------------|---------------|----------------|
G|0-0-0-0-0-0-0-0|0-0-0-0-0-0-0-0-|-0--0--0--0--0-|--0--0--0--0--0-|
D|5-5-5-5-5-5-5-5|5-5-5-5-5-5-5-5/|12-12-12\10\-8/|-13-13-13/15\12-|
A|---------------|----------------|---------------|----------------|
E|---------------|----------------|---------------|----------------|
P.M.************

e|---------------|---------------|----------------------------------|
B|---------------|---------------|----------------------------------|
G|3-3-----3-3-3-3|3-3-3-3-3-3-3--|-7-7-7-7-7-7-7-7-\2-2-2-2/3-3-3-3-|
D|5-5-5-5-5-5-5-5|5-5-5-5-5-5-5-0|-8-8-8-8-8-8-8-8-\3-3-3-3/5-5-5-5-|
A|---------------|---------------|----------------------------------|
E|---------------|---------------|----------------------------------|
P.M.***********************

e|---------------|---------------|----------------------------------|
B|---------------|---------------|----------------------------------|
G|3-3-3-3-3-3-3-3|3-3-3-3-3-3-3-3|-7-7-7-7-7-7-7-7-\2-2-2-2/5-5-5---|
D|5-5-5-5-5-5-5-5|5-5-5-5-5-5-5-5|-8-8-8-8-8-8-8-8-\3-3-3-3/7-7-7-0-|
A|---------------|---------------|----------------------------------|
E|---------------|---------------|----------------------------------|

e|----------|------------|--------|----------|
B|----------|------------|--------|----------|
G|7-7---7-7-|---7--7--7-/|1010-10\|5-5--5--5/|
D|5-5---5-5-|---5--5--5-/|-8-8--8\|3-3--3--3/|
A|----------|------------|--------|----------|
E|----------|------------|--------|----------|

e|--------|----------|--------|-------------|
B|--------|----------|--------|-------------|
G|7-7--7-7|--7-7-7---|--------|-------------|
D|5-5--5-5|--5-5-5---|3--3----|5-5-5-5-5/12\|
A|--------|-------0-0|3--3-0-0|5-5-5-5-5/12\|
E|--------|-------0-0|1--1-0-0|5-5-5-5-5/10\|

Repeat Chorus...

Bridge:
e|---------------|---------------|---------------|------------------------|
B|---------------|---------------|---------------|------------------------|
G|0--(0)--0---0-0|0--(0)--0---0-0|0--(0)--0---0-0|-0----(0)----0-----0--0-|
D|5-5-5-5-5-5-5-5|7-7-7-7-7-7-7-7|8-8-8-8-8-8-8-8|10-10-10-10-10-10-10-10\|
A|---------------|---------------|---------------|------------------------|
E|---------------|---------------|---------------|------------------------|
P.M.**********************************************************************

e|---------------|---------------|---------------|------------------------|
B|---------------|---------------|---------------|------------------------|
G|0-0-0-0-0-0-0-0|0-0-0-0-0-0-0-0|0-0-0-0-0-0-0-0|-0--0--0--0--0--0--0--0-|
D|5-5-5-5-5-5-5-5|7-7-7-7-7-7-7-7|8-8-8-8-8-8-8-8|10-10-10-10-10-10-10-10\|
A|---------------|---------------|---------------|------------------------|
E|---------------|---------------|---------------|------------------------|
P.M.**********************************************************************

e|---------------|---------------|---------------|------------------------|
B|---------------|---------------|---------------|------------------------|
G|0-0-0-0-3-3-3-3|0-0-0-0-5-5-5-5|0-0-0-0-7-7-7-7|-0--0--0--0--8--8--8--8-|
D|5-5-5-5-5-5-5-5|7-7-7-7-7-7-7-7|8-8-8-8-8-8-8-8|10-10-10-10-10-10-10-10\|
A|---------------|---------------|---------------|------------------------|
E|---------------|---------------|---------------|------------------------|
P.M.**********************************************************************

e|---------------|---------------|---------------|------------------------|
B|---------------|---------------|---------------|------------------------|
G|0-0-0-0-3-3-3-3|0-0-0-0-5-5-5-5|0-0-0-0-7-7-7-7|-0--0--0--0--8--8--8--8-|
D|5-5-5-5-5-5-5-5|7-7-7-7-7-7-7-7|8-8-8-8-8-8-8-8|10-10-10-10-10-10-10-10\|
A|---------------|---------------|---------------|------------------------|
E|---------------|---------------|---------------|------------------------|

e|---------------|-------------|
B|---------------|-------------|
G|0-0-0-0-0-0-0-0|-0-0-0-0--0--|
D|5-5-5-5-7-7-7-7|-8-8-8-10-10-|
A|---------------|-------------|
E|---------------|-------------|

Breakdown:
e|3---3-------|---------------|\--- /
B|3---3-------|-4-4-4-4-4---------- / \
G|3---3-------|-5-5-5-5-5-----|  \- / X4
D|5---5-------|-5-5-5-5-5-----| --- /
A|5---5---0-0-|-3-3-3-3-3---0-|---- /
E|3---3---0-0-|-3-3-3-3-3---0------ /

play ^^ before vv one after another but don't play this(vv) the 4th time...
e|-----------|-3-3-3-3-3-------|\--- /
B|-----------|-3-3-3-3-3------------ / \
G|-2--2------|-3-3-3-3-3-------|  \- / x3
D|-3--3------|-5-5-5-5-5-------| --- /
A|-3--3--0-0-|-5-5-5-5-5---0-0-|---- /
E|-1--1--0-0-|-3-3-3-3-3---0-0------ /

Background Fill Part 1:
e|--------------|------------|
B|--------------|------------|
G|12--/15-15----|5---/8-8----|
D|x----x--x-----|x----x-x----|
A|10--/13-13----|3---/6-6-0-0|
E|0----0--0-----|0----0-0-0-0|

Background fill Part 2:
e|-----------------------|-------------------------|
B|-----------------------|-------------------------|
G|12-12-12-12-12-12-12-12|-12-12-12-12-12-12-12-12\|
D|x--x--x--x--x--x--x--x-|-x--x--x--x--x--x--x--x--|
A|10-10-10-10-10-10-10-10|-10-10-10-10-10-10-10-10\|
E|0--0--0--0--0--0--0--0-|-0--0--0--0--0--0--0--0--|

e|------------------------|------------------------|
B|------------------------|------------------------|
G|11-11-11-11-11-11-11-11/|-12-12-12-12-12-12-12-12|
D|x--x--x--x--x--x--x--x--|-x--x--x--x--x--x--x--x-|
A|9--9--9--9--9--9--9--9--|-10-10-10-10-10-10-10-10|
E|0--0--0--0--0--0--0--0--|-0--0--0--0--0--0--0--0-|

e|------------------------|------------------------|
B|------------------------|------------------------|
G|15-15-15-15-15-15-15-15/|-17-17-17-17-17-17-17-17|
D|x--x--x--x--x--x--x--x--|-x--x--x--x--x--x--x--x-|
A|13-13-13-13-13-13-13-13/|-15-15-15-15-15-15-15-15|
E|0--0--0--0--0--0--0--0--|-0--0--0--0--0--0--0--0-|

e|---------------------|---|
B|---------------------|---|
G|14-14-14-14-14-14-14\|12-|
D|x--x--x--x--x--x--x--|x--|
A|12-12-12-12-12-12-12\|10-|
E|0--0--0--0--0--0--0--|0--|

Clean Part Of Breakdown:
e|---------------|---------------|---------------|--|
B|---------------|---------------|---------------|--|
G|---12----12----|---14----14----|---15----15----|17|
D|---------------|---------------|---------------|x-|
A|10----10----10/|12----12----12/|13----13----13/|15|
E|---------------|---------------|---------------|--|

Repeat Chorus 2x...

End First Chorus With:
e|
B|
G|7---7-7----|7--7--7-7----|12-12-12-12-14-14-14-14|15-15-15/-17-17-----|
D|8---8-8----|7--7--7-7----|x--x--x--x--x--x--x--x-|x--x--x---x--x------|
A|8---8-8-00-|5--5--5-5-00-|10-10-10-10-12-12-12-12|13-13-13/-15-15-----|
E|6---6-6-00-|5--5--5-5-00-|0--0--0--0--0--0--0--0--0--0--0---0--0------|

End Second Chorus With..
e|------|------|----|
B|------|6-----|----|
G|7-----|7-----|----|
D|8-----|7-----|----|
A|8---0-|5---0-|--5-|
E|6---0-|5---0-|--3-|
P.M.  *      *

If you didn't understand what I had meant around the Breakdown area, just email me, and 
try to explain it better lol :)
Hope You Enjoyed It! :)

Duration Legend:
P.M. = Palm Mute
* = Palm Mute
() = Ghost note (played lightly, or you could just not play it)
/\ = slide
Suggest correction
Give kudos to tab author, rate the tab!
1 2 3 4 5
comments
print report bad tab
guest
You may want to rate the tab now too:
select rating
Please do not post tabs as comments. Select "correction" instead!