Oops, an error
Loading. Please wait.

But Home Is Nowhere Tab

version 4
version 4

Whole song

Interactive

by AFI
1,460 views 1 this week
no commentswrite comment
1 2 3 4 5
1 last vote to show rating
add to favorites
launch autoscroll
font size
0
reset
how to read this tab
guitar tuner
Autoscroll
slow
fast
+/-
esc
set tempo
stop
Help us to improve Ultimate-Guitar.com Take our survey!
×
Author
Tuning is standard

Intro - Clean
E-----------------------------------------------------------------------------|
B-----------------------------------------------------------------------------|
G-----------------------------------------------------------------------------|
D-4-4-4-4-4-4-4-4-4-4-4-4-4-4-4-4-7-7-7-7-7-7-7-2-2-2-2-2-6-6-6-6-------------|X4
A-----------------------------------------------------------------------------|
E-----------------------------------------------------------------------------|
PM . . . . . . . . . . . . . . . . . . . . . . . . . . . . . . .

Verse1 - Distortion
E----------------------------------------------------------------------------|
B----------------------------------------------------------------------------|
G-2-2-2-2-2-2-2-2-2-2-2-2-2-2-2-2-6-6-6-6-6-6-6-6-1-1-1-1-4-4-4-4------------|
D-4-4-4-4-4-4-4-4-4-4-4-4-4-4-4-4-7-7-7-7-7-7-7-7-2-2-2-2-6-6-6-6------------|
A----------------------------------------------------------------------------|
E----------------------------------------------------------------------------|

Prechorus1
E---------------------------------0-0--2-2-2-2-2-----------------------------|
B---------------------------------0-0--2-2-2-2-2-----------------------------|
G-2-2-2-2-2-2-2-2-2-2-2-2-2-2-2-2-1-1--2-2-2-2-2-----------------------------|
D-4-4-4-4-4-4-4-4-4-4-4-4-4-4-4-4-2-2--4-4-4-4-4-----------------------------|
A---------------------------------2-2--4-4-4-4-4-----------------------------|
E---------------------------------0-0--2-2-2-2-2-----------------------------|

Chorus -
e-----------------------------------------------------------------------------|
b----5----0----2----------5---0---2-----5---0---2-------------5~--------------|
g----6----1----2----------6---1---2-----6---1---2-------------6~------2~------|
d----7----2----4----------7---2---4-----7---2---4-------------7~--6~--4~------|
a----7----2----4----------7---2---4-----7---2---4-------------7~--7~--4~------|
E----5--- 0----2----------5---0---2-----5---0---2-------------5~--4~--2~------|
   Amaj  Emaj F#m


Lead (for chorus) i know i didnt tab the timing, but it sounds like jade just uses octaves.
e----------------------------------------------------------------------------|
b-------------------------------------------------------------5~-------------|
g------------------6--------------7--6--6---------------------6~------2~-----|
d----7--6---9---7--7--------7--6--x--x--7--------7--6--9--7---7~--6~--4~-----|
a----x--x---x---x--7--------x--x--5--4--7--------x--x--x--x---7~--7~--4~-----|
E----5--4---7---5--5--------5--4--------5--------5--4--7--5---5~--4~--2~-----|
                            AMaj                 AMaj

Verse2
E----------------------------------------------------------------------------|
B----------------------------------------------------------------------------|
G----------------------------------------------------------------------------|
D-4-4-4-4-4-4-4-4-4-4-4-4-4-4-4-4-7-7-7-7-7-7-7-7-2-2-2-2-6-6-6-6------------|
A----------------------------------------------------------------------------|
E----------------------------------------------------------------------------|


E----------------------------------------------------------------------------|
B-----------------7-7-7-7-7-7-7-7--------------------------------------------|
G-----------------x-x-x-x-x-x-x-x--------------------------------------------|
D-4-4-4-4-4-4-4-4-4-4-4-4-4-4-4-4-11-11-11-9-9-9-7-7-12-12-12-14-14-14-11-11-|
A---------------------------------9--9--9--9-9-9-9-9-9--9--9--9--9--9--9--9--|
E----------------------------------------------------------------------------|

Bridge
E-----------------------------------------------------------------------|
B-----------------------------------------------------------------------|
G-----------------------------------------------------------------------|
D-4-4-4-4-4-4-4-4-6-6-6-6-6-6-6-6-7-7-7-7-7-7-7-7-9-9-9-9-9-9-9-9-------|
A-----------------9-9-9-9-9-9-9-9-9-9-9-9-9-9-9-9-9-9-9-9-9-9-9-9-------|
E-----------------------------------------------------------------------|


E-----------------------------------------------------------------------|
B-----------------------------------------------------------------------|
G---------2-2-2-2---------4-4-4-4---------6-6-6-6---------7-7-7-7-------|  2x
D-4-4-4-4-4-4-4-4-6-6-6-6-6-6-6-6-7-7-7-7-7-7-7-7-9-9-9-9-9-9-9-9-------|
A-----------------9-9-9-9-9-9-9-9-9-9-9-9-9-9-9-9-9-9-9-9-9-9-9-9-------|
E-----------------------------------------------------------------------|

Here's the build up part to the bridge
e-------------------------------------------------|
b-------------------------------------------------|
g--11-11-11-11/-13-13-13-13/--14-14-14-14/--16----|
d--x--x--x--x---x--x--x--x----x--x--x--x----x-----|
a--9--9--9--9/--11-11-11-11/--12-12-12-12/--14----|
E-------------------------------------------------|


Bridge 4x
e--------------------------------------------|
b--10--10-10-10------------------------------|
g--11--11-11-11---7-7-7-7--2-2-2-2/-2-2-2-2--|
d--11--11-11-11---9-9-9-9--3-3-3-3/-4-4-4-4--|
a--9---9--9--9----9-9-9-9--3-3-3-3/-4-4-4-4--|
E--9---9--9--9----7-7-7-7--1-1-1-1/-2-2-2-2--|
   F#m             Bm      Fmaj     F#m

Heres the riff over the bridge (2nd time)
e---------------------------------------------|
b-----10-----------7---------1-1-1-1--2-2-2-2-|
g-----11--11/-14---7---------2-2-2-2--2-2-2-2-|
d-----11--x----x---9-9/-12---3-3-3-3--4-4-4-4-|
a-----9---9/--12---9-x--x----3-3-3-3--4-4-4-4-|
E------------------7-7/-10---1-1-1-1--2-2-2-2-|


The second riff over the bridge (3rd and 4th time)
e---------------------------------------------|
b---------------------------------------------|
g-11-11-11-11/------10-10-10-10/-11-11-11-11--|
d-x--x--x--x--(2x)--x--x--x--x---x--x--x--x---|
a-9--9--9--9/-------8--8--8--8/--9--9--9--9---|
E---------------------------------------------|

e -------------------------------------------------|
b -------------------------------------------------|
g -14--14-14-14/-16-16-16-16-16/-13-13-13-13/-11~~-|
d -x---x--x--x---x--x--x---x--x--x--x--x--x---x----|
a -12--12-12-12/-14-14-14-14-14/-11-11-11-11/-9~~--|
E -------------------------------------------------|

(Here's when he says "empty" on a long note, play this clean)
E--------------------------------------------------|
B--7--7-----9--9-----10--10----12------------------|
G------------------------------x-------------------|
D-4--4--4--6--6--6--7---7---7--9-------------------|
A--------------------------------------------------|
E--------------------------------------------------|

I dont deserve 100% of the credit on this one, i put 2 different tabs together that each 
right and wrong parts, and came up with this.
Suggest correction
Give kudos to tab author, rate the tab!
1 2 3 4 5
comments
print report bad tab
guest
You may want to rate the tab now too:
select rating
Wanna post a correction for this tab? Suggest correction