Oops, an error
Loading. Please wait.

Carcinogen Crush Tab

version 3
version 3

Whole song

Interactive

by AFI
2,343 views 1 this week
no commentswrite comment
1 2 3 4 5
please rate
add to favorites
launch autoscroll
font size
0
reset
how to read this tab
guitar tuner
Autoscroll
slow
fast
+/-
esc
set tempo
stop
Help us to improve Ultimate-Guitar.com Take our survey!
×
Contributor
arkantos 244
Carcinogen Crush
From Guitar Hero III “ROCK LEGENDS”
Tunning ½ step down


INTRO (BOTH GUITARS)
|-------------------------------|
|-------------------------------|
|-------------------------------|
|-------7--10-10-10-------------|
|-5/7-7-5--8--8--8---10-10-10---| X4
|-3/5-5--------------8--8--8----|

VERSE (BOTH GUITARS)
|-------------------------------------------------------------------------|
|-------------------------------------------------------------------------|
|-------------------------------------------------------------------------|
|-9---9---9---9---9---9---9---9---12---12---12---12---12---12---12---12---|
|---7---7---7---7---7---7---7---7---10---10---10---10---10---10---10---10-|
|-------------------------------------------------------------------------|

|-------------------------------------------------------------------------|
|-------------------------------------------------------------------------|
|--8---8---8---8---8---8---8---8------------------------------------------|
|----------------------------------12---12---12---12---12---12---12---12--|
|---11--11--11--11--11--11--11--11---10---10---10---10---10---10---10---10| X2
|-------------------------------------------------------------------------|

CHORUS (GUITAR 1)
|-------------8-----8--7~------7---7--8--|
|---10---10------------------8---5-------|
|------9---------9-----------------------|
|----------------------------------------|
|----------------------------------------|
|----------------------------------------|

CHORUS (GUITAR 2)
|---------------------------------------------------------------------------|
|---------------------------------------------------------------------------|
|---------10-10-10-10-10-10----------999999--------------------------999999-|
|-777777--10-10-10-10-10-10--555555--999999------------------777777--999999-|
|-777777--8--8--8--8--8--8---555555--777777--555555--777777--777777--777777-|
|-555555---------------------333333----------333333--555555--555555---------|
					     ***************
					(PM)

VERSE (BOTH GUITARS)
|-------------------------------------------------------------------------|
|-------------------------------------------------------------------------|
|-------------------------------------------------------------------------|
|-9---9---9---9---9---9---9---9---12---12---12---12---12---12---12---12---|
|---7---7---7---7---7---7---7---7---10---10---10---10---10---10---10---10-|
|-------------------------------------------------------------------------|

|-------------------------------------------------------------------------|
|-------------------------------------------------------------------------|
|--8---8---8---8---8---8---8---8------------------------------------------|
|----------------------------------12---12---12---12---12---12---12---12--|
|---11--11--11--11--11--11--11--11---10---10---10---10---10---10---10---10| X2
|-------------------------------------------------------------------------|

ENDING THE VERSE (BOTH GUITARS)
|-----------------------|
|-----------------------|
|----13-13-13-13-13-13--|
|-----------------------|
|--11-11-11-11-11-11----|
|-----------------------|
CHORUS (GUITAR 1)
|-------------8-----8--7~------7---7--8--|
|---10---10------------------8---5-------|
|------9---------9-----------------------|
|----------------------------------------|
|----------------------------------------| X2
|----------------------------------------|

CHORUS (GUITAR 2) (X2)
|---------------------------------------------------------------------------|
|---------------------------------------------------------------------------|
|---------10-10-10-10-10-10----------999999--------------------------999999-|
|-777777--10-10-10-10-10-10--555555--999999------------------777777--999999-|
|-777777--8--8--8--8--8--8---555555--777777--555555--777777--777777--777777-|
|-555555---------------------333333----------333333--555555--555555---------|
					    ***************		(PM)
BRIDGE (BOTH GUITARS)
|-------------------------------|
|-------------------------------|
|-------------------------------|
|----------77-----55555555------|
|--3-x-5-x-77-5-x-55555555------| x4
|--1-x-3-x-55-3-x-33333333------|

ENDING BRIDGE
|------------|
|------------|
|--99999999--|
|--99999999--|
|--77777777--|
|------------|

INTRO (BOTH GUITARS)
|-------------------------------|
|-------------------------------|
|-------------------------------|
|-------7--10-10-10-------------|
|-5/7-7-5--8--8--8---10-10-10---| X4
|-3/5-5--------------8--8--8----|

IN THE ENDING OF THIS PART PLAY THIS
|----------|
|----------|
|----------|
|----------|
|---5--7~~-|
|---3--5~~-|

HERE THERE IS A BASS PART YOU PLAY NEXT UNTIL 2:27 (BOTH GUITARS)
|--------------------------------------------------------------|
|--------------------------------------------------------------|
|-------------------------------------------------------999999-|
|--10-10-10-10---------------9--9--9--9--------------7--999999-|
|--8--8--8--8---7--7--7--7---7--7--7--7--9--9--9--9--7--777777-|
|---------------5--5--5--5---------------7--7--7--7--5---------|

CHORUS (GUITAR 1)
|-------------8-----8--7~------7---7--8--|
|---10---10------------------8---5-------|
|------9---------9-----------------------|
|----------------------------------------|
|----------------------------------------|
|----------------------------------------|

CHORUS (GUITAR 2)
|---------------------------------------------------------------------------|
|---------------------------------------------------------------------------|
|---------10-10-10-10-10-10----------999999--------------------------999999-|
|-777777--10-10-10-10-10-10--555555--999999------------------777777--999999-|
|-777777--8--8--8--8--8--8---555555--777777--555555--777777--777777--777777-|
|-555555---------------------333333----------333333--555555--555555---------|
					    ***************
				                 (PM)
INTRO (BOTH GUITARS)
|-------------------------------|
|-------------------------------|
|-------------------------------|
|-------7--10-10-10-------------|
|-5/7-7-5--8--8--8---10-10-10---| X3
|-3/5-5--------------8--8--8----|

ENDING (BOTH GUITARS)
|--------------------------------------|
|--------------------------------------|
|--------------------------------------|
|-------7--10-10-10--------------------|
|-5/7-7-5--8--8--8---10-10-10--7--5--7-|
|-3/5-5--------------8--8--8---5--3--5-|

Well I think this is the best tab form this song so enjoy it!
comments
We did not receive enough feedback on this tab! Please rate:
print report bad tab
1 2 3 4 5
I want to post or [tab]
guest
You may want to rate the tab now too:
select rating
Please do not post tabs as comments. Select "correction" instead!