Oops, an error
Loading. Please wait.

Catch A Hot One Bass Tab

version 1
version 1

Whole song

Interactive

by AFI
788 views 1 this week
1 commentread comment
1 2 3 4 5
2 more votes to show rating
add to favorites
launch autoscroll
font size
0
reset
guitar tuner
Autoscroll
slow
fast
+/-
esc
set tempo
stop
Help us to improve Ultimate-Guitar.com Take our survey!
×
Author
Band: Afi
Song: Catch A Hot One 
Tuning: Standard


INTRO
G|------------------------------------------------------------------------|
D|------------------------------------------------------------------------|
A|--------66666666----------66666666-----------7-66666666--------------5-6|
E|55555555---------55555555-----------55555555-------------1111111- 333---|


Verse  1 
G|--------------------------| 
D|--------------------------| 
A|-------------333-555-6-7--| 
E|-55555555-----------------| 


Verse 2
G|------------------------------| 
D|-------------3-2------5-3-2-0-| 
A|------------------5-3---------|
E|-55555555---------------------| 


Verse 3 
G|--------------------------------------------|
D|------------------------------55-33-22------| 
A|-----------------------------------------55-| 
E|-1-1-1-1-1-1-1-1--0-0-0-0-------------------| 


variation  part 3 (before solo)
G|---------------------------------------------------| 
D|---------------------------------------------------| 
A|--------------------------------7777777777777777---|
E|-1-1-1-1-1-1-1-1-3333-3333-------------------------|                  


SOLO
G|-2222-4444-5555-4444-2222-4444-5555-7777-2222-4444-5555-7777-9----------|
D|------------------------------------------------------------------------|
A|------------------------------------------------------------------------| 
E|------------------------------------------------------------------5-3-1-| 


chorus 1 
G|-------------------------------------| 
D|-------------------------------------| 
A|-------------------------------------| 
E|-11111111-33333333-55555555-5555555--| 


chorus  2 
G|------------------------------------------| 
D|------------------------------------------|
A|------------------------------------------|
E|-111111111-33333333-555-777-888-777-555---|

last part 
G|-----------| 
D|-----------| 
A|-----------| 
E|-11-33-55--| 

Bridge                                                                  X3
G|-------------------------|-------------------------------|--------------| 
D|-------------------------|-------------------------------|--------------| 
A|-------3-----6-----7-----|-------3---3--6----6--7-----7--|-7777777------|
E|-5-33----33---55----555--|-5-3-5---3-------5--------5----|--------5-3-1-|


Enjoy!

Any Questions/comments?

Email: matt.8768@yahoo.co.uk

Suggest correction
Give kudos to tab author, rate the tab!
1 2 3 4 5
comments
print report bad tab
1 comment total.
0 reply
tncbassist14 10 May 28, 2008 09:45 AM

this tab is perfect 5*

guest
You may want to rate the tab now too:
select rating
Wanna post a correction for this tab? Suggest correction