Oops, an error
Loading. Please wait.

Catch A Hot One Tab

version 1
version 1

Whole song

Interactive

by AFI
917 views 1 this week
no commentswrite comment
1 2 3 4 5
x 4
add to favorites
launch autoscroll
font size
0
reset
how to read this tab
guitar tuner
Autoscroll
slow
fast
+/-
esc
set tempo
stop
Help us to improve Ultimate-Guitar.com Take our survey!
×
Author
-------------------------------------------------------------------------------
                         CATCH A HOT ONE - AFI
-------------------------------------------------------------------------------

Tabbed by: danc446
Email: danc446@yahoo.com

Tuning: Standard E

Intro
e|--------------------------------------------------------------|
B|--------------------------------------------------------------|
G|------8:------8:------------8-8-8-8-----------5-5-5-7-8 REST--|
D|--7:--8:--7:--8:---7-7-7-7--8-8-8-8--3-3-3-3--5-5-5-7-8-------|
A|--7:--6:--7:--6:---7-7-7-7--6-6-6-6--3-3-3-3--3-3-3-5-6-------|
E|--5:------5:-------5-5-5-5-----------1-1-1-1------------------|
PM                   *****************

Verse 1 
e|--------------------------------------------------------------------------|
B|--------------------------------------------------------------------------|
G|---------5-5-7-8--------10-10-12-12---------5-5-7-8-10-10-10-10--8-8-8-8--|
D|-7-7-7-7-5-5-7-8-7-7-7-7-x--x--x--x-7-7-7-7-5-5-7-8-10-10-10-10--8-8-8-8--|
A|-7-7-7-7-3-3-5-6-7-7-7-7-8--8-10-10-7-7-7-7-3-3-5-6--8--8--8--8--6-6-6-6--|
E|-5-5-5-5---------5-5-5-5------------5-5-5-5-------------------------------|
                                        
e|--------------------------------------------------------------------------|
B|--------------------------------------------------------------------------|
G|---------5-5-7-8-----------10-10-12-12---------5-5-7-8-10-10-10-10--------|
D|-7-7-7-7-5-5-7-8-7-7-7-7-7--x--x--x--x-7-7-7-7-5-5-7-8-10-10-10-10--------|
A|-7-7-7-7-3-3-5-6-7-7-7-7-7--8--8-10-10-7-7-7-7-3-3-5-6--8--8--8--8--------|
E|-5-5-5-5---------5-5-5-5-5-------------5-5-5-5----------------------------|

e|---------------------------|
B|---------------------------|
G|-12-12-12-12--10-10-10-10--|
D|-12-12-12-12--10-10-10-10--|
A|-10-10-10-10---8--8--8--8--|
E|---------------------------|

FILL*
e|------------------------------------------------------------------------|
B|------------------------------------------------------------------------|
G|------4444-5555-4444-------4444-5555-7777------4444-5555-7777-9---------|
D|--7-7-----------------7-7------------------7-7-------------------7--5-3-|
A|--7-7-----------------7-7------------------7-7-------------------7--5-3-|
E|--5-5-----------------5-5------------------5-5-------------------5--3-1-|

CHORUS
e|-------------------------------------------------------------------------|
B|-------------------------------------------------------------------------|
G|------------------------------------------------------------5-5-5--------|
D|-3-3-3-3--5-5-5-5--7-7-xxx-7-7--3-3-3-3-5-5-5-5-7-7-7-9-9-9-5-5-5-5-5-5--|
A|-3-3-3-3--5-5-5-5--7-7-xxx-7-7--3-3-3-3-5-5-5-5-7-7-7-9-9-9-3-3-3-5-5-5--|
E|-1-1=1-1--3-3-3-3--5-5-xxx-5-5--1-1-1-1-3-3-3-3-5-5-5-7-7-7-------3-3-3--|

e|--------------------------------------------|
B|--------------------------------------------|
G|--------------------------------------------|
D|-3-3-3-3--5-5-5-5--7-7-xxx-7-7--3-3-3-3--2--|
A|-3-3-3-3--5-5-5-5--7-7-xxx-7-7--3-3-3-3--2--|
E|-1-1-1-1--3-3-3-3--5-5-xxx-5-5--1-1-1-1--0--|

Bridge
e|---------------------------------------------------------------------|
B|---------------------------------------------------------------------|
G|--9-9-9-9-7-7-7-7--9-9-9-9-7-7-7-7--9-9-9-9-7-7-7-7--9-9-9-9-7-7-7-7-|
D|--x-x-x-x-x-x-x-x--x-x-x-x-x-x-x-x--x-x-x-x-x-x-x-x--x-x-x-x-x-x-x-x-|
A|--7-7-7-7-5-5-5-5--7-7-7-7-5-5-5-5--7-7-7-7-5-5-5-5--7-7-7-7-5-5-5-5-|
E|---------------------------------------------------------------------|

e|---------------------------------------------------------------------|
B|---------------------------------------------------------------------|
G|------------------5-5-5-5-5-5-5-5-7-7-7-7-7-7-7-7-8-8-8-8-8-8-8-8----|
D|--7-7-7-7-7-7-7-7-5-5-5-5-5-5-5-5-7-7-7-7-7-7-7-7-8-8-8-8-8-8-8-8----|
A|--7-7-7-7-7-7-7-7-3-3-3-3-3-3-3-3-5-5-5-5-5-5-5-5-6-6-6-6-6-6-6-6----|
E|--5-5-5-5-5-5-5-5----------------------------------------------------|

e|---------------------------------------------------------------------|
B|---------------------------------------------------------------------|
G|------------------5-5-5-5-5-5-5-5-7-7-7-7-7-7-7-7-8-8-8-8-8-8-8-8----|
D|--7-7-7-7-7-7-7-7-5-5-5-5-5-5-5-5-7-7-7-7-7-7-7-7-8-8-8-8-8-8-8-8----|
A|--7-7-7-7-7-7-7-7-3-3-3-3-3-3-3-3-5-5-5-5-5-5-5-5-6-6-6-6-6-6-6-6----|
E|--5-5-5-5-5-5-5-5----------------------------------------------------|

e|---------------------------------------------------------------------------|
B|---------------------------------------------------------------------------|
G|-9--9-9-9-9-9-9-9-9--10--10-10-10-10-10-10-10-10--12-12-12-12-12-12-12-12--|
D|-x--x-x-x-x-x-x-x-x---x---x--x--x--x--x--x--x--x---x--x--x--x--x--x--x--x--|
A|-7--7-7-7-7-7-7-7-7---8---8--8--8--8--8--8--8--8--10-10-10-10-10-10-10-10--|
E|---------------------------------------------------------------------------|


* The single notes in the fill are bass, arranged for guitar.

| /  slide up
| \  slide down
| h  hammer-on
| p  pull-off
| ~  vibrato
| +  harmonic
| x  Mute note
| :  Let ring

===============================================================================
Suggest correction
comments
print report bad tab
guest
You may want to rate the tab now too:
select rating
Wanna post a correction for this tab? Suggest correction