Oops, an error
Loading. Please wait.

Catch A Hot One Tab

version 2
version 2

Whole song

Interactive

by AFI
169 views 1 this week
no commentswrite comment
1 2 3 4 5
accurate
x 3
add to favorites
launch autoscroll
font size
0
reset
how to read this tab
guitar tuner
Autoscroll
slow
fast
+/-
esc
set tempo
stop
Help us to improve Ultimate-Guitar.com Take our survey!
×
Author
-------------------------------------------------------------------------------
                         Catch a Hot One - AFI
-------------------------------------------------------------------------------
Tabbed by:rockr_01
Email:afmondragonb@aol.com

Tuning:EADGBE
Intro
e|----------------------------------------------------------------------------
B|----------------------------------------------------------------------------
G|---2-----8-----2----8---22222222--88888888-1010101010101010-----------------
D|---2-----8-----2----6---22222222--88888888-1010101010101010-----------------
A|---0-----6-----0----6---00000000--66666666--8-8-8-8-8-8-8-8-----------------
E|----------------------------------------------------------------------------
                        PM..................

Intro (continued)
e|---------------------------------------------------------------------------|
B|---------------------------------------------------------------------------|
G|---5--5--7-8---------------------------------------------------------------|
D|---5--5--7-8---------------------------------------------------------------|
A|---3--3--5-6---------------------------------------------------------------|
E|---------------------------------------------------------------------------|
Chorus
e|---------------------------------------------------------------------------|
B|---------------------------------------------------------------------------|
G|-2--2-2-2-2-2-2-2--5--5-7-8--2--2-2-2-2-2-2-2-2-2--------------------------|
D|-2--2-2-2-2-2-2-2--5--5-7-8--2--2-2-2-2-2-2-2-2-2--3--3-5-5----------------|
A|-0--0-0-0-0-0-0-0--3--3-5-6--0--0-0-0-0-0-0-0-0-0--3--3-5-5----------------|
E|---------------------------------------------------1--1-3-3----------------|
Chorus (Continued)
e|---------------------------------------------------------------------------|
B|---------------------------------------------------------------------------|
G|-2--2-2-2-2-2-2-2--5--5-7-8--10--101010101010--9-9-9-9-9-9-9-9-9-----------|
D|-2--2-2-2-2-2-2-2--5--5-7-8--10--101010101010--9-9-9-9-9-9-9-9-9-----------|
A|-0--0-0-0-0-0-0-0--3--3-5-6---8---8-8-8-8-8-8--7-7-7-7-7-7-7-7-7-----------|
E|---------------------------------------------------------------------------|
Variation of the continuation of the chorus (played ONLY where said!)
e|---------------------------------------------------------------------------|
B|---------------------------------------------------------------------------|
G|-2--2-2-2-2-2-2-2--5--5-7-8--10--101010101010--121212121212121212----------|
D|-2--2-2-2-2-2-2-2--5--5-7-8--10--101010101010--121212121212121212----------|
A|-0--0-0-0-0-0-0-0--3--3-5-6---8---8-8-8-8-8-8--101010101010101010----------|
E|---------------------------------------------------------------------------|
Fill
e|---------------------------------------------------------------------------|
B|---------------------------------------------------------------------------|
G|-999999999999999999999999--------------------------------------------------|
D|-999999999999999999999999--------------------------------------------------|
A|-777777777777777777777777--------------------------------------------------|
E|---------------------------------------------------------------------------|
Bridge                             (This Part is played twice, listen to the song)
e|---------------------------------|-----------------------------------------|
B|---------------------------------|-----------------------------------------|
G|-22---------22-------22------2--2|-----------------------------------------|
D|-22---------22-------22------2--2|5-3--5--7-7-7-7--------------------------|
A|-00---------00-------00------0--0|5-3--5--7-7-7-7--------------------------|
E|---------------------------------|3-1--3--5-5-5-5--------------------------|
Bridge Continued    (this part is played twice)
e|---------------------------------------------------------------------------|
B|---------------------------------------------------------------------------|
G|---------------------------------------------------------------------------|
D|-3---5-7-911-12------------2---5-------------------------------------------|
A|-3---5-7-911-12------------2---5-------------------------------------------|
E|-1---3-5-7-8-11------------0---3-------------------------------------------|
Fill 2
e|---------------------------------------------------------------------------|
B|---1010101010101010----88888888--------------------------------------------|
G|----9-9-9-9-9-9-9-9----77777777--------------------------------------------|
D|----7-7-7-7-7-7-7-7----55555555--------------------------------------------|
A|---------------------------------------------------------------------------|
E|---------------------------------------------------------------------------|
Fill 3
e|---------------------------------------------------------------------------|
B|---1010101010101010--1111111111111111--------------------------------------|
G|----9-9-9-9-9-9-9-9--1010101010101010--------------------------------------|
D|----7-7-7-7-7-7-7-7---8-8-8-8-8-8-8-8--------------------------------------|
A|---------------------------------------------------------------------------|
E|---------------------------------------------------------------------------|
Fill 4
e|---------------------------------------------------------------------------|
B|---------------------------------------------------------------------------|
G|--2-2--5-5--7-7--8-8-------------------------------------------------------|
D|--2-2--5-5--7-7--8-8-------------------------------------------------------|
A|--0-0--3-3--5-5--6-6-------------------------------------------------------|
E|---------------------------------------------------------------------------|


-In Order to get the song right, you MUST listen to it or play along with
it until you have the rhythimn down!-

Order: 
Intro x1
Chorus x2
Chorus Variation x1
Fill x1
Bridge x1
Intro x1
Chorus x2
Chorus Variation x1
Fill x1
Bridge x1
Fill 2 x3
Fill 3 x1
Fill 4 x2
(i have NO idea how to play this part between the Fill 4 and the Bridge)
Bridge x1 (listen to the song because this Bridge does NOT start at the first 2,2,0!!!)

===============================================================================
Suggest correction
Give kudos to tab author, rate the tab!
1 2 3 4 5
comments
print report bad tab
guest
You may want to rate the tab now too:
select rating
Please do not post tabs as comments. Select "correction" instead!