Oops, an error
Loading. Please wait.

Catch A Hot One Tab

version 3
version 3

Whole song

Interactive

by AFI
804 views 6 this week
1 commentread comment
1 2 3 4 5
excellent!
x 2
add to favorites
launch autoscroll
font size
0
reset
how to read this tab
guitar tuner
Tab Pro tools
  • play this tab
  • loop segment
  • change instrument
  • show fretboard
  • metronome
Autoscroll
slow
fast
+/-
esc
set tempo
stop
Catch A Hot One
Band: AFI
Album: The Art of Drowning (2000)
Tuning: Flat (E flat, A flat Etc)

I re-tabbed this song for flat tuning because AFI uses flat tuning on Art of Drowning.

Intro
e|--------------------------------------------------------------|
B|--------------------------------------------------------------|
G|------9:------9:------------9-9-9-9-----------6-6-6-8-9 REST--|
D|--8:--9:--8:--9:---8-8-8-8--9-9-9-9--4-4-4-4--6-6-6-8-9-------|
A|--8:--7:--8:--7:---8-8-8-8--7-7-7-7--4-4-4-4--4-4-4-6-7-------|
E|--6:------6:-------6-6-6-6-----------2-2-2-2------------------|
PM                   *****************

Verse 1 
'Lets tap your heart'
e|--------------------------------------------------------------------------|
B|--------------------------------------------------------------------------|
G|---------6-6-8-9--------11-11-13-13---------6-6-8-9-11-11-11-11--9-9-9-9--|
D|-8-8-8-8-6-6-8-9-8-8-8-8-x--x--x--x-8-8-8-8-6-6-8-9-11-11-11-11--9-9-9-9--|
A|-8-8-8-8-4-4-6-7-8-8-8-8-9--9-11-11-8-8-8-8-4-4-6-9--9--9--9--9--7-7-7-7--|
E|-6-6-6-6---------6-6-6-6------------6-6-6-6-------------------------------|
                                        
e|---------------------------------------------------------------------------|
B|---------------------------------------------------------------------------|
G|---------6-6-8-9-----------11-11-13-13--------6-6-8-9-11-11-11-11--9-9-9-9-|
D|-8-8-8-8-6-6-8-9-8-8-8-8-8-x--x--x--x-8-8-8-8-6-6-8-9-11-11-11-11--9-9-9-9-|
A|-8-8-8-8-4-4-6-7-8-8-8-8-8-9--9-11-11-8-8-8-8-4-4-6-9--9--9--9--9--7-7-7-7-|
E|-6-6-6-6---------6-6-6-6-6----------6-6-6-6--------------------------------|
'Show me how to shine now'
e|---------------------------|
B|---------------------------|
G|-13-13-13-13--11-11-11-11--|
D|-13-13-13-13--11-11-11-11--|
A|-11-11-11-11---9--9--9--9--|
E|---------------------------|

FILL The single notes are bass arranged for guitar
e|------------------------------------------------------------------------|
B|------------------------------------------------------------------------|
G|------5555-6666-5555-------5555-6666-8888------5555-6666-8888-10---------|
D|--8-8-----------------8-8------------------8-8-------------------8--6-4-|
A|--8-8-----------------8-8------------------8-8-------------------8--6-4-|
E|--6-6-----------------6-6------------------6-6-------------------6--4-2-|

CHORUS
'Have you turned, turned to dust'
e|---------------------------------------------------------------------------|
B|---------------------------------------------------------------------------|
G|---------------------------------------------------------------6-6-6-------|
D|-4-4-4-4—-6-6-6-6--8-8-xxx-8-8—-4-4-4-4-6-6-6-6-8-8-8-10-10-10-4-4-4-6-6-6-|
A|-4-4-4-4—-6-6-6-6--8-8-xxx-8-8—-4-4-4-4-6-6-6-6-8-8-8-10-10-10-4-4-4-6-6-6-|
E|-2-2-2-2—-4-4-4-4--6-6-xxx-6-6—-2-2-2-2-4-4-4-4-6-6-6-8--8--8--------4-4-4-|

e|--------------------------------------------|
B|--------------------------------------------|
G|--------------------------------------------|
D|-4-4-4-4—-6-6-6-6--8-8-xxx-8-8—-4-4-4-4--3--|
A|-4-4-4-4—-6-6-6-6--8-8-xxx-8-8--4-4-4-4--3--|
E|-2-2-2-2--4-4-4-4--6-6-xxx-6-6--6-6-6-6--1--|

Bridge
e|---------------------------------------------------------------------|
B|---------------------------------------------------------------------|
G|--9-9-9-9-7-7-7-7--9-9-9-9-7-7-7-7--9-9-9-9-7-7-7-7--9-9-9-9-7-7-7-7-|
D|--x-x-x-x-x-x-x-x--x-x-x-x-x-x-x-x--x-x-x-x-x-x-x-x--x-x-x-x-x-x-x-x-|
A|--7-7-7-7-5-5-5-5--7-7-7-7-5-5-5-5--7-7-7-7-5-5-5-5--7-7-7-7-5-5-5-5-|
E|---------------------------------------------------------------------|



e|---------------------------------------------------------------------|
B|---------------------------------------------------------------------|
G|------------------6-6-6-6-6-6-6-6-8-8-8-8-8-8-8-8-9-9-9-9-9-9-9-9----|
D|--8-8-8-8-8-8-8-8-6-6-6-6-6-6-6-6-8-8-8-8-8-8-8-8-9-9-9-9-9-9-9-9----|
A|--8-8-8-8-8-8-8-8-4-4-4-4-4-4-4-4-6-6-6-6-6-6-6-6-7-7-7-7-7-7-7-7----|
E|--6-6-6-6-6-6-6-6----------------------------------------------------|

e|---------------------------------------------------------------------|
B|---------------------------------------------------------------------|
G|------------------6-6-6-6-6-6-6-6-8-8-8-8-8-8-8-8-9-9-9-9-9-9-9-9----|
D|--8-8-8-8-8-8-8-8-6-6-6-6-6-6-6-6-8-8-8-8-8-8-8-8-9-9-9-9-9-9-9-9----|
A|--8-8-8-8-8-8-8-8-4-4-4-4-4-4-4-4-6-6-6-6-6-6-6-6-6-7-7-7-7-7-7-7----|
E|--6-6-6-6-6-6-6-6----------------------------------------------------|

e|-----------------------------------------------------------------------------------|
B|-----------------------------------------------------------------------------------|
G|-10--10-10-10-10-10-10-10-10--11--11-11-11-11-11-11-11-11--13-13-13-13-13-13-13-13-|
D|-x---x--x--x--x--x--x--x--x---x---x--x--x--x--x--x--x--x---x--x--x--x--x--x--x--x--|
A|-8---8--8--8--8--8--8--8--8---9---9--9--9--9--9--9--9--9---11-11-11-11-11-11-11-11-|
E|-----------------------------------------------------------------------------------|
comments
We did not receive enough feedback on this tab! Please rate:
print report bad tab
1 2 3 4 5
1 comment total.
0 reply
TheBax wrote on February 7 2008, 06:19 pm

Really Good! A bit ~similar~ to the original, but better chord choices, i looked at both of them and chose this one.
Nice...

I want to post or [tab]
guest
You may want to rate the tab now too:
select rating
Please do not post tabs as comments. Select "correction" instead!