Oops, an error
Loading. Please wait.

Catch A Hot One Tab

version 4
version 4

Whole song

Interactive

by AFI
178 views 3 this week
no commentswrite comment
1 2 3 4 5
please rate
add to favorites
launch autoscroll
font size
0
reset
how to read this tab
guitar tuner
Autoscroll
slow
fast
+/-
esc
set tempo
stop
Help us to improve Ultimate-Guitar.com Take our survey!
×
A Fire Inside, Catch A Hot One

intro
--------------------------------------------------------------|
--------------------------------------------------------------|
----8-----8---pm-----------8888-------------------5-8--rest---|
--7-8---7-8---========-====8888-33333333333-55555-5-8---------|
--7-6---7-6---xxxxxxxx-66666666-33333333333-55555-5-6---------|
--5-6---5-6---55555555-66666666-11111111111-33333-5-6---------|


VERSE
---------------------------------------------------------|
---------------------------------------------------------|
--------------555555-7-8---------------10-10-10-12-12-12-|
-777777777777-555555-7-8--777777777777--x--x--x--x--x--x-|
-777777777777-333333-5-6--777777777777--8--8--8-10-10-10-|
-555555555555-333333-5-6--555555555555-------------------|


VERSE
------------------------------------------------------------------------|
------------------------------------------------------------------------|
--------------555555-7-8-10-10-10-10-10-10-10-10-999999999999-----------|
-777777777777-555555-7-8-10-10-10-10-10-10-10-10-999999999999-x\-pick---|
-777777777777-333333-5-6--8--8--8--8--8--8--8--8-777777777777-x\\scrape-|
-555555555555-333333-5-6--8--8--8--8--8--8--8--8-777777777777---\\------|


VERSE
---------------------------------------------------------|
---------------------------------------------------------|
--------------555555-7-8---------------10-10-10-12-12-12-|
-777777777777-555555-7-8--777777777777--x--x--x--x--x--x-|
-777777777777-333333-5-6--777777777777--8--8--8-10-10-10-|
-555555555555-333333-5-6--555555555555-------------------|


VERSE
-------------------------------------------------------------------------|
-------------------------------------------------------------------------|
--------------555555-7-8-10-10-10-10-10-10-10-10-12-12-12-12-12-12-12-12-|
-777777777777-555555-7-8-10-10-10-10-10-10-10-10-12-12-12-12-12-12-12-12-|
-777777777777-333333-5-6--8--8--8--8--8--8--8--8-10-10-10-10-10-10-10-10-|
-555555555555-333333-5-6--8--8--8--8--8--8--8--8-10-10-10-10-10-10-10-10-|


VERSE
-----------------------------------------------------|
-----------------------------------------------------|
-99999999999999999999--------------------------------|
-99999999999999999999--77----77----77-------7----7-5-|
-77777777777777777777--77----77----77-------7----7-5-|
-77777777777777777777--55----55----55-------5----5-3-|


CHORUS
------------------------------------------------|
------------------------------------------------|
-------------------------------9-9-------9-9----|
-333333333333-555555555555-7---x-x---7---x-x----|
-333333333333-555555555555-7-x-7-7-x-7-x-7-7----|
-111111111111-333333333333-5-x-----x-5-x--------|


CHORUS
------------------------------------|
------------------------------------|
---------------------------2--4-5---|
-333333333333-555555555555-2--5-5-5-|
-333333333333-555555555555-0--2-3-5-|
-111111111111-333333333333-0----3-3-|


CHORUS
--------------------------------------------------------------------|
--------------------------------------------------------------------|
-------------------------------9-9-------9-9------------------------|
-333333333333-555555555555-7---x-x---7---x-x----333333333333-2-REST-|
-333333333333-555555555555-7-x-7-7-x-7-x-7-7-x--333333333333-2------|
-111111111111-333333333333-5-x-----x-5-x-----x--111111111111-0------|


--------------------------------------------------------------|
--------------------------------------------------------------|
----8-----8---pm-----------8888-------------------5-8--rest---|
--7-8---7-8---========-====8888-33333333333-55555-5-8---------|
--7-6---7-6---xxxxxxxx-66666666-33333333333-55555-5-6---------|
--5-6---5-6---55555555-66666666-11111111111-33333-5-6---------|


VERSE
---------------------------------------------------------|
---------------------------------------------------------|
--------------555555-7-8---------------10-10-10-12-12-12-|
-777777777777-555555-7-8--777777777777--x--x--x--x--x--x-|
-777777777777-333333-5-6--777777777777--8--8--8-10-10-10-|
-555555555555-333333-5-6--555555555555-------------------|


VERSE
-------------------------------------------------------------------------|
-------------------------------------------------------------------------|
--------------555555-7-8-10-10-10-10-10-10-10-10-12-12-12-12-12-12-12-12-|
-777777777777-555555-7-8-10-10-10-10-10-10-10-10-12-12-12-12-12-12-12-12-|
-777777777777-333333-5-6--8--8--8--8--8--8--8--8-10-10-10-10-10-10-10-10-|
-555555555555-333333-5-6--8--8--8--8--8--8--8--8-10-10-10-10-10-10-10-10-|


VERSE
-----------------------------------------------------|
-----------------------------------------------------|
-99999999999999999999--------------------------------|
-99999999999999999999--77----77----77-------7----7-5-|
-77777777777777777777--77----77----77-------7----7-5-|
-77777777777777777777--55----55----55-------5----5-3-|


CHORUS
------------------------------------------------|
------------------------------------------------|
-------------------------------9-9-------9-9----|
-333333333333-555555555555-7---x-x---7---x-x----|
-333333333333-555555555555-7-x-7-7-x-7-x-7-7----|
-111111111111-333333333333-5-x-----x-5-x--------|


CHORUS
------------------------------------|
------------------------------------|
---------------------------2--4-5---|
-333333333333-555555555555-2--5-5-5-|
-333333333333-555555555555-0--2-3-5-|
-111111111111-333333333333-0----3-3-|


CHORUS
--------------------------------------------------------------------|
--------------------------------------------------------------------|
-------------------------------9-9-------9-9------------------------|
-333333333333-555555555555-7---x-x---7---x-x----333333333333-2-REST-|
-333333333333-555555555555-7-x-7-7-x-7-x-7-7-x--333333333333-2------|
-111111111111-333333333333-5-x-----x-5-x-----x--111111111111-0------|


BRIDGE, 3 Xs
|-------------------------------------------------------|
|:-10-10-10-10-10-10-10-10-10-10-10-10-88888888888888--:|
|---X--X--X--X--X--X--X--X--X--X--X--X-xxxxxxxxxxxxxx---|
|---7--7--7--7--7--7--7--7--7--7--7--7-55555555555555---|
|:-----------------------------------------------------:|
|-------------------------------------------------------|


BRIDGE
|-----------------------------------------------------||
|-10-10-10-10-10-10-10-10-10-10-10-10-88888888888888--||
|--X--X--X--X--X--X--X--X--X--X--X--X-xxxxxxxxxxxxxx--||
|--7--7--7--7--7--7--7--7--7--7--7--7-88888888888888--||
|-----------------------------------------------------||
|-----------------------------------------------------||


BRIDGE
|------------------------------|----------------------------bend------|
|:----------------------------:|---=--------==-----==---------^-------|
|----2------5------7------8----|---9---------9-----10------12^-^12----|
|--2-2-2--5-5-5--7-7-7--8-8-8--|---7--------10-----12------14^-^14----|
|:-0-0-0--3-3-3--5-5-5--6-6-6-:|--///////////////////////////////////-|
|--0---0--3---3--5---5--6---6--|---speed-pick-------------------------|


-------|
-------|
-------|
--7-5--|
--7-5--|
--5-3--|



CHORUS
------------------------------------------------|
------------------------------------------------|
-------------------------------9-9-------9-9----|
-333333333333-555555555555-7---x-x---7---x-x----|
-333333333333-555555555555-7-x-7-7-x-7-x-7-7----|
-111111111111-333333333333-5-x-----x-5-x--------|


CHORUS
------------------------------------|
------------------------------------|
---------------------------2--4-5---|
-333333333333-555555555555-2--5-5-5-|
-333333333333-555555555555-0--2-3-5-|
-111111111111-333333333333-0----3-3-|


CHORUS
---------------------------------------------------------------------|
---------------------------------------------------------------------|
-------------------------------9-9-------9-9-------------------------|
-333333333333-555555555555-7---x-x---7---x-x----333333333333-2-REST--|
-333333333333-555555555555-7-x-7-7-x-7-x-7-7-x--333333333333-2-------|
-111111111111-333333333333-5-x-----x-5-x-----x--111111111111---------|
Suggest correction
Give kudos to tab author, rate the tab!
1 2 3 4 5
comments
print report bad tab
guest
You may want to rate the tab now too:
select rating
Please do not post tabs as comments. Select "correction" instead!