Oops, an error
Loading. Please wait.

Cereal Wars Bass Tab

version 2
version 2

Whole song

Interactive

by AFI
2,056 views 3 this week
5 commentsread comments
1 2 3 4 5
accurate
x 7
add to favorites
launch autoscroll
font size
0
reset
guitar tuner
Autoscroll
slow
fast
+/-
esc
set tempo
stop
Help us to improve Ultimate-Guitar.com Take our survey!
×
Author
AFI – Cereal Wars

Intro, let notes ring:
|--------------------------------------------------------------------|
|--------2-3-5-3-2-----------------------------2-3-5-3-2---------5---|
|------------------3---------5-3-2-3---------------------3-----------|
|--3-----------------3---------------3-3-------------------3---------|


Verse pt.1 play 6x:
|--------------------------------------------------------------------|
|--------------------------------------------------------------------|
|-----77---9-----------7>--------------------------------------------|
|--77----7----4-55-77------------------------------------------------|

Verse part 2 play twice:
|--------------------------------------------------------------------|
|--------------------------------------------------------------------|
|------------5-7-5---------------------------------------------------|
|--5-7>-4-7>--------7>-5-7>-8>---------------------------------------|

|--------------------------------------------------------------------|
|--------------------------------------------------------------------|
|-----7>----7>----7>----7>----7>----7>-6-7>--------------------------|
|--77----77----77----77----77----77---------0-let-ring---------------|

Guitar part!

Then:
|--------------------------------------------------------------------|
|--------------------------------------------------------------------|
|-----7---9---------7------------------------------------------------|
|--77---7---4-55-77--------------------------------------------------|

Verse part 1 play twice:
|--------------------------------------------------------------------|
|--------------------------------------------------------------------|
|-----77---9-----------7>--------------------------------------------|
|--77----7----4-55-77------------------------------------------------|

Verse part 2 play once:
|--------------------------------------------------------------------|
|--------------------------------------------------------------------|
|----------5-7-5------------8-10-8-10-8------------------------------|
|--7>-5-7>--------7>-5-7>-8-------------10-8-7-----------------------|

End:
|--------------------------------------------------------------------|
|--------------------------------------------------------------------|
|----------5-7-5-----------------------------------------------------|
|--7>-5-7>-------7>-5-7>-8>-7\---------------------------------------|

The difficult thing is the strumming. But I know you can figure it out. Thanks to the 
playing it on youtube.
Suggest correction
comments
print report bad tab
5 comments total. Showing first comments.
+1 reply
redsoxxplayer 504 wrote on October 30 2006, 08:18 am

YES!! FINALLY!! a great cereal wars bass tab

+1 reply
mint_car 111 wrote on October 30 2006, 08:20 am

thanks :)

+1 reply
afi1994 10 wrote on May 11 2008, 02:25 pm

the intro is a little off but still a great tab

guest
You may want to rate the tab now too:
select rating
Wanna post a correction for this tab? Suggest correction