Oops, an error
Loading. Please wait.

Clove Smoke Catharsis Tab

version 2
version 2

Whole song

Interactive

by AFI
538 views 9 this week
no commentswrite comment
1 2 3 4 5
please rate
add to favorites
launch autoscroll
font size
0
reset
how to read this tab
guitar tuner
Autoscroll
slow
fast
+/-
esc
set tempo
stop
Help us to improve Ultimate-Guitar.com Take our survey!
×
Clove Smoke Catharsis

INTRO
-----------------------------------------------------|
-----------------------------------------------------|
-----------------------------------------------------|
--77-7-7-7-777-7--77-7-7-7-777-7--777--7-------------|
--55-8\7-7-777-8--55-8\7-7-777-8--888--5-------------|
--55-5-5-5-666-6--55-5-5-5-666-6--888\-5-------------|


PRE-VERSE
|--5-5---5---5-------------|
|:-6--6--5----5-----------:|
|--7---7-7-7---7----7------|
|--7-----7-----------0-----|
|:-5-----5------------5---:|
|--5-----5--------6-----5--|


VERSE
|--5-5---5---5------------5-----|--5-5---5-5----------------|
|:-6--6--5----5------------5---:|--6-5---5-5----------------|
|--7---7-7-7---7------------7---|--7-7-7-7-7-x--------------|
|--7-----7--------0-0-0------7--|--7---7-----0-00000000-00--|
|:-5-----5--------5-5-5--------:|--5---------0-5555xxxx-77--|
|--5-----5--------6-6-5-5-------|--5-----------66668888-99--|



chorus
-5-5555-5-5-555-55555555555--66666666666--8--8--8-------------------|
-6-6666-6-6-666-55555555555--66666666666--8--8--8-------------------|
-7-7777-7-7-777-66666666666--77777777777--9--9--9-------------------|
-7-7777-7-7-777-77777777777--88888888888-10-10-10-11-11-11-14-14-14-|
-5-5555-5-5-555-77777777777--88888888888-10-10-10--x--x--x--x--x--x-|
-5-5555-5-5-555-55555555555--66666666666--8--8--8--9--9--9-12-12-12-|


chorus
-55555555555-5------5--------66666666666--------------------|
-66666666666-5------5--------66666666666--------------------|
-77777777777-6-9999-6--9999--77777777777-----------13-13-13-|
-77777777777-7------77-------88888888888--3-3-5-55--x--x--x-|
-55555555555-7------77-------88888888888--3-3-5-55-11-11-11-|
-55555555555-5------5--------66666666666--1-1-3-33----------|


VERSE 2
--5-5-----5-5-----||--5-5---5---5------------5-----||
--6-5-----6-5-----||:-6--6--5----5------------5---:||
--7-7-7-7-7-7-7-7-||--7---7-7-7---7------------7---||
--7---7-7-7---7-7-||--7-----7--------0-0-0------7--||
--5---5-5-5---5-5-||:-5-----5--------5-5-5--------:||
--5---6-5-5---6-5-||--5-----5--------6-6-5-5-------||




VERSE 2
--5-5---5-5----------------|
--6-5---5-5----------------|
--7-7-7-7-7-x--------------|
--7---7-----0-00000000-00--|
--5---------0-5555xxxx-77--|
--5-----------66668888-99--|


chorus
-5-5555-5-5-555-55555555555--66666666666--8--8--8-------------------|
-6-6666-6-6-666-55555555555--66666666666--8--8--8-------------------|
-7-7777-7-7-777-66666666666--77777777777--9--9--9-------------------|
-7-7777-7-7-777-77777777777--88888888888-10-10-10-11-11-11-14-14-14-|
-5-5555-5-5-555-77777777777--88888888888-10-10-10-11-11-11-14-14-14-|
-5-5555-5-5-555-55555555555--66666666666--8--8--8--9--9--9-12-12-12-|


chorus
-55555555555-5------5--------66666666666--------------------|
-66666666666-5------5--------66666666666--------------------|
-77777777777-6-9999-6--9999--77777777777-----------13-13-13-|
-77777777777-7------77-------88888888888--3-3-5-55--x--x--x-|
-55555555555-7------77-------88888888888--3-3-5-55-11-11-11-|
-55555555555-5------5--------66666666666--1-1-3-33----------|


BRIDGE
----------------------------------------------------------------------|
----------------------------------------------------------------------|
-------------------------------------10-10-10-10-10-10-10-10-55555555-|
9999999-9-11-12-12-12-12-12-12-12-12-10-10-10-10-10-10-10-10-55555555-|
9999999-9--X-12-12-12-12-12-12-12-12--8--8--8--8--8--8--8--8-33333333-|
7777777-7--9-10-10-10-10-10-10-10-10--8--8--8--8--8--8--8--8-33333333-|



BRIDGE
------------------------------------------------------------------------|
------------------------------------------------------------------------|
-------------------------------------10-10-10-10-10-10-10-10-5555666666-|
9999999-9-11-12-12-12-12-12-12-12-12-10-10-10-10-10-10-10-10-5555666666-|
9999999-9--X-12-12-12-12-12-12-12-12--8--8--8--8--8--8--8--8-3333444444-|
7777777-7--9-10-10-10-10-10-10-10-10--8--8--8--8--8--8--8--8-3333444444-|



interlude
|------------------------------------------------------------|---------|
|:----------------------------------------------------------:|---------|
|------------------------------------------------------------|-10-9----|
|--77-7-7-7-777-7-7777-10-10-11-11-11-11-11-11-11-11-11-11---|--x-x----|
|:-55-8\7-7-777-8-7777--7--7--7--7--7--7--7--7--7--7--7--7--:|--8-7----|
|--55-5-5-5-666-6-8888--8--8--9--9--9--9--9--9--9--9--9--9---|---------|



interlude
---------|
---------|
777777777
000000000
---------|
---------|



chorus
-5-5555-5-5-555-55555555555--66666666666--8--8--8-------------------|
-6-6666-6-6-666-55555555555--66666666666--8--8--8-------------------|
-7-7777-7-7-777-66666666666--77777777777--9--9--9-------------------|
-7-7777-7-7-777-77777777777--88888888888-10-10-10-11-11-11-14-14-14-|
-5-5555-5-5-555-77777777777--88888888888-10-10-10-11-11-11-14-14-14-|
-5-5555-5-5-555-55555555555--66666666666--8--8--8--9--9--9-12-12-12-|


chorus
-55555555555-5------5--------66666666666--------------------------|
-66666666666-5------5--------66666666666--------------------------|
-77777777777-6-9999-6--9999--77777777777-----------13-16-16-16-16-|
-77777777777-7------77-------88888888888--3-3-5-xx--x--x--x--x--x-|
-55555555555-7------77-------88888888888--3-3-5-xx-11-14-14-14-14-|
-55555555555-5------5--------66666666666--1-1-3-xx----------------|



chorus
-5-5555-5-5-555-55555555555--66666666666--8--8--8-------------------|
-6-6666-6-6-666-55555555555--66666666666--8--8--8-------------------|
-7-7777-7-7-777-66666666666--77777777777--9--9--9-------------------|
-7-7777-7-7-777-77777777777--88888888888-10-10-10-11-11-11-14-14-14-|
-5-5555-5-5-555-77777777777--88888888888-10-10-10-11-11-11-14-14-14-|
-5-5555-5-5-555-55555555555--66666666666--8--8--8--9--9--9-12-12-12-|


chorus
-55555555555-5------5--------66666666666--------------------------|
-66666666666-5------5--------66666666666--------------------------|
-77777777777-6-9999-6--9999--77777777777-10-10-12-----13-13-13----|
-77777777777-7------77-------88888888888-10-10-12---x--x--x--x----|
-55555555555-7------77-------88888888888--8--8-10-x-x-11-11-11----|
-55555555555-5------5--------66666666666--8--8-10-x---------------|





--------------------------------------|
--------------------------------------|
-7--play-several-times-into-oblivion--|
-0------------------------------------|
-5------------------------------------|
--------------------------------------|
Suggest correction
Give kudos to tab author, rate the tab!
1 2 3 4 5
comments
print report bad tab
guest
You may want to rate the tab now too:
select rating
Wanna post a correction for this tab? Suggest correction