Oops, an error
Loading. Please wait.

Dancing Through Sunday Tab

version 3
version 3

Whole song

Interactive

by AFI
5,965 views 6 this week
no commentswrite comment
1 2 3 4 5
please rate
add to favorites
launch autoscroll
font size
0
reset
how to read this tab
guitar tuner
Autoscroll
slow
fast
+/-
esc
set tempo
stop
Help us to improve Ultimate-Guitar.com Take our survey!
×
Author
Difficulty
Tuning
intermediate
D# G# C# F# A# D#
#----------------------------------PLEASE NOTE---------------------------------#
#This file is the author's own work and represents their interpretation of the #
#song. You may only use this file for private study, scholarship, or research. #
#------------------------------------------------------------------------------##

                             DANCING THROUGH SUNDAY
                               As recorded by AFI
                      (From the 2003 Album SING THE SORROW)

Words by Davey Havok

Music by AFI

Gtr I (D# G# C# F# A# D#) - 'intro'
Gtr II (D# G# C# F# A# D#) - 'main'
Gtr III (D# G# C# F# A# D#) - 'background'

 Intro
  Moderate Rock Q=115
  E5       A5/E  Em    E      E5        A5/E  Em    E
 4/4
  Gtr I
   E  S  E  S  E  S  E S Q     E   S  E  S  E  S  E S Q
|---------------------------|----------------------------|
|---------------------------|----------------------------|
|-16-15-15-14-14-12-12-9-9--|-16--15-15-14-14-12-12-9-9--|
|--x--x--x--x--x--x--x-x-x--|--x---x--x--x--x--x--x-x-x--|
|-14-13-13-12-12-10-10-7-7--|-14--13-13-12-12-10-10-7-7--|
|--0--0--0--0--0--0--0-0-0--|--0---0--0--0--0--0--0-0-0--|
|
| Gtr II
|  <
|  W                          +W
|---------------------------|----------------------------|
|---------------------------|----------------------------|
|--9------------------------|-(9)------------------------|
|--9------------------------|-(9)------------------------|
|--7------------------------|-(7)------------------------|
|--7------------------------|-(7)------------------------|
|
| Gtr III
|  W                          +W
|---------------------------|----------------------------|
|---------------------------|----------------------------|
|---------------------------|----------------------------|
|---------------------------|----------------------------|
|---------------------------|----------------------------|
|--0------------------------|-(0)------------------------|


  E5        A5/E  Em    E      E5         A5/E  Em    E
   E   S  E  S  E  S  E S Q     E    S  E  S  E  S  E S Q
|----------------------------|---------------------------------|
|----------------------------|---------------------------------|
|-16--15-15-14-14-12-12-9-9--|-16---15-15-14-14-12-12-9-9------|
|--x---x--x--x--x--x--x-x-x--|--x----x--x--x--x--x--x-x-x------|
|-14--13-13-12-12-10-10-7-7--|-14---13-13-12-12-10-10-7-7------|
|--0---0--0--0--0--0--0-0-0--|--0----0--0--0--0--0--0-0-0------|
|
| +W                           +W
|----------------------------|---------------------------------|
|----------------------------|---------------------------------|
|-(9)------------------------|-(9)-----------------------------|
|-(9)------------------------|-(9)-----------------------------|
|-(7)------------------------|-(7)-----------------------------|
|-(7)------------------------|-(7)-----------------------------|
|
|                               <
| +W                            H..                        E
|----------------------------|--1S========================21---|
|----------------------------|---------------------------------|
|----------------------------|---------------------------------|
|----------------------------|---------------------------------|
|----------------------------|---------------------------------|
|-(0)------------------------|---------------------------------|


   Verse 1
    Faster Q=116
    E5/B                                   C           D
    Gtr II
     E  E    E     S E     S S S S S S S    E  S  E  S  E  S  E  S  S  S  E
||---------------------------------------|------------------------------------||
||o--------------------------------------|-------------10-10-10-10-10-10-10--o||
||---9--9----9-----9-9-----9-9-9-9-9-9-9-|--9--9--9--9-11-11-11-11-11-11-11---||
||---9--9----9-----9-9-----9-9-9-9-9-9-9-|-10-10-10-10-12-12-12-12-12-12-12---||
||o--7--7----7-----7-7-----7-7-7-7-7-7-7-|-10-10-10-10-12-12-12-12-12-12-12--o||
||---7--7----7-----7-7-----7-7-7-7-7-7-7-|--8--8--8--8-10-10-10-10-10-10-10---||
|
|   Gtr III
|    E  S  E    S  E    S  E   S Q          E  S  E  S  E  S  E  S  S  S  E
||---------------------------------------|------------------------------------||
||o--------------------------------------|-------------10-10-10-10-10-10-10--o||
||--16-15-15---14-14---12-12---9-9-------|--9--9--9--9-11-11-11-11-11-11-11---||
||---x--x--x----x--x----x--x---x-x-------|-10-10-10-10-12-12-12-12-12-12-12---||
||o-14-13-13---12-12---10-10---7-7-------|-10-10-10-10-12-12-12-12-12-12-12--o||
||---0--0--0----0--0----0--0---0-0-------|--8--8--8--8-10-10-10-10-10-10-10---||


  E5    C     A5/E Em   E     C           D
   E S.  E S.  E S  E S S E    E  S  E  S  E  S  E  S  S  S  E
|---------------------------|----------------------------------|
|---------------------------|-------------10-10-10-10-10-10-10-|
|---------------------------|--9--9--9--9-11-11-11-11-11-11-11-|
|---------------------------|-10-10-10-10-12-12-12-12-12-12-12-|
|-14----13----12---10---7-7-|-10-10-10-10-12-12-12-12-12-12-12-|
|--0-----0-----0----0---0-0-|--8--8--8--8-10-10-10-10-10-10-10-|


  E5       A5/E  Em    E      C           D    D5   D
                                                PM
   E  S  E  S  E  S  E S Q     E  S  E  S  E E  S S  Q
|---------------------------|---------------------------|
|---------------------------|--8--8--8--8-10--------10--|
|-16-15-15-14-14-12-12-9-9--|--9--9--9--9-11--------11--|
|--x--x--x--x--x--x--x-x-x--|-10-10-10-10-12---12---12--|
|-14-13-13-12-12-10-10-7-7--|-10-10-10-10-12---12---12--|
|--0--0--0--0--0--0--0-0-0--|--8--8--8--8-10---10---10--|


 Chorus
  Slower Q=112
  $
  G                         DsusEsus2/B
  E S E S E S E S S S S S   S E S S E S E S S S S E
|-------------------------|-------------------------|
|-3-3-3-3-3-3-3-3-3-3-3-3-|-5-5-7-7-7-7-7-7-7-7-7-7-|
|-4-4-4-4-4-4-4-4-4-4-4-4-|-7-7-9-9-9-9-9-9-9-9-9-9-|
|-5-5-5-5-5-5-5-5-5-5-5-5-|-7-7-9-9-9-9-9-9-9-9-9-9-|
|-5-5-5-5-5-5-5-5-5-5-5-5-|-5-5-7-7-7-7-7-7-7-7-7-7-|
|-3-3-3-3-3-3-3-3-3-3-3-3-|-5-5-7-7-7-7-7-7-7-7-7-7-|


  G                         DsE5/BEmE5E5EmE5EmE5
                            PM--|   PM|   PM
  E S E S E S E S S S S S   S S E E S S E E E E
|-------------------------|-------7-----7---7----|
|-3-3-3-3-3-3-3-3-3-3-3-3-|-5-x-x-8-x-x-8-x-8----|
|-4-4-4-4-4-4-4-4-4-4-4-4-|-7-x-x-9-x-x-9-x-9-9\-|
|-5-5-5-5-5-5-5-5-5-5-5-5-|-7-9-9-9-9-9-9-9-9-9\-|
|-5-5-5-5-5-5-5-5-5-5-5-5-|-5-7-7-7-7-7-7-7-7-7\-|
|-3-3-3-3-3-3-3-3-3-3-3-3-|-5-7-7-7-7-7-7-7-7----|


  G                         DsusEsus2/B
  E S E S E S E S S S S S   S E S S E S E S S S S E
|-------------------------|-------------------------|
|-3-3-3-3-3-3-3-3-3-3-3-3-|-5-5-7-7-7-7-7-7-7-7-7-7-|
|-4-4-4-4-4-4-4-4-4-4-4-4-|-7-7-9-9-9-9-9-9-9-9-9-9-|
|-5-5-5-5-5-5-5-5-5-5-5-5-|-7-7-9-9-9-9-9-9-9-9-9-9-|
|-5-5-5-5-5-5-5-5-5-5-5-5-|-5-5-7-7-7-7-7-7-7-7-7-7-|
|-3-3-3-3-3-3-3-3-3-3-3-3-|-5-5-7-7-7-7-7-7-7-7-7-7-|


                                                   To Coda
  C                                     Dsus2/A   D#sus2/Bb
   E  S  E  S  E  S  S  S  S  S  S  E   E S E S E S S S E E.
|-------------------------------------|----------------------|
|--8--8--8--8--8--8--8--8--8--8--8--8-|-5-5-5-5-5-6-6-6-6----|
|--9--9--9--9--9--9--9--9--9--9--9--9-|-7-7-7-7-7-8-8-8-8----|
|-10-10-10-10-10-10-10-10-10-10-10-10-|-7-7-7-7-7-8-8-8-8----|
|-10-10-10-10-10-10-10-10-10-10-10-10-|-5-5-5-5-5-6-6-6-6----|
|--8--8--8--8--8--8--8--8--8--8--8--8-|-5-5-5-5-5-6-6-6-6----|


 Verse 2
  Faster Q=116
          G#5   C           D
  H.       Q     E  S  E  S  E  S  E  S  S  S  E
|-------------|----------------------------------|
|-------------|--8--8--8--8-10-10-10-10-10-10-10-|
|-------------|--9--9--9--9-11-11-11-11-11-11-11-|
|---------18S=|=10-10-10-10-12-12-12-12-12-12-12-|
|---------18S=|=10-10-10-10-12-12-12-12-12-12-12-|
|---------16S=|==8--8--8--8-10-10-10-10-10-10-10-|


  E5       A5/E  Em    E      C           D
   E  S  E  S  E  S  E S Q     E  S  E  S  E  S  E  S  S  S  E
|---------------------------|----------------------------------|
|---------------------------|--8--8--8--8-10-10-10-10-10-10-10-|
|-16-15-15-14-14-12-12-9-9--|--9--9--9--9-11-11-11-11-11-11-11-|
|--x--x--x--x--x--x--x-x-x--|-10-10-10-10-12-12-12-12-12-12-12-|
|-14-13-13-12-12-10-10-7-7--|-10-10-10-10-12-12-12-12-12-12-12-|
|--0--0--0--0--0--0--0-0-0--|--8--8--8--8-10-10-10-10-10-10-10-|


  E5    C     A5/E Em   E     C           D
   E S.  E S.  E S  E S S E    E  S  E  S  E  S  E  S  S  S  E
|---------------------------|----------------------------------|
|---------------------------|--8--8--8--8-10-10-10-10-10-10-10-|
|---------------------------|--9--9--9--9-11-11-11-11-11-11-11-|
|---------------------------|-10-10-10-10-12-12-12-12-12-12-12-|
|-14----13----12---10---7-7-|-10-10-10-10-12-12-12-12-12-12-12-|
|--0-----0-----0----0---0-0-|--8--8--8--8-10-10-10-10-10-10-10-|


                                        D.S. al Coda
  E5       A5/E  Em    E      C           D    D5   D
                                                PM
   E  S  E  S  E  S  E S Q     E  S  E  S  E E  S S  Q
|---------------------------|---------------------------|
|---------------------------|--8--8--8--8-10--------10--|
|-16-15-15-14-14-12-12-9-9--|--9--9--9--9-11--------11--|
|--x--x--x--x--x--x--x-x-x--|-10-10-10-10-12---12---12--|
|-14-13-13-12-12-10-10-7-7--|-10-10-10-10-12---12---12--|
|--0--0--0--0--0--0--0-0-0--|--8--8--8--8-10---10---10--|


 Breakdown
  Slower Q=112
  &
  Em/B
  Gtr II
  W          +H.      Q     W
|-7--------|-(7)---------|-----------|
|-8--------|-(8)---------|-----------|
|-9--------|-(9)---------|-----------|
|-9--------|-(9)---------|-----------|
|-7--------|-(7)------7S=|=19--------|
|-7--------|-(7)---------|-----------|
|
| Gtr I
| W           W             W
|----------|-------------|-----------|
|----------|-------------|-----------|
|----------|-------------|-----------|
|----------|-------------|-----------|
|----------|-------------|-----------|
|----------|-------------|-----------|


    >
   +W                 +W
|------------------|---------------------------|
|------------------|---------------------------|
|------------------|---------------------------|
|------------------|---------------------------|
|-(19)b19.5r=======|=(19)----------------------|
|------------------|---------------------------|
|
|                             T
|   W                  S S S  S S S  E. Q  E S
|------------------|---------------------------|
|------------------|---------------------------|
|------------------|---------------------------|
|------------------|--12p0-0-12p0-0-12-----2p0-|
|------------------|---------------------------|
|------------------|---------------------------|


    >
   +W
|---------------------------|
|---------------------------|
|---------------------------|
|---------------------------|
|-(19)----------------------|
|---------------------------|
|
| Gtr I
|   S S S  S S S  E. Q  E S
|---------------------------|
|---------------------------|
|---------------------------|
|--11p0-0-11p0-0-11-----2p0-|
|---------------------------|
|---------------------------|


   +W                          +W
|---------------------------|---------------------------|
|---------------------------|---------------------------|
|---------------------------|---------------------------|
|---------------------------|---------------------------|
|-(19)----------------------|-(19)----------------------|
|---------------------------|---------------------------|
|
|   S S S  S S S  E. Q  E S     S S S S S S E   E  Q  E
|---------------------------|---------------------------|
|---------------------------|---------------------------|
|---------------------------|---------------------------|
|--10p0-0-10p0-0-10-----2p0-|---9p0-0-7p0-0-5\-/5S14----|
|---------------------------|---------------------------|
|---------------------------|---------------------------|


  E    Em/Eb   G    G5/D    Esus4E5/A
  H     H      H     H      H     H
|-x----^0----|-3----^3----|-x----^0----|
|-x----^0----|-3----^3----|-0----^0----|
|-1----^0----|-0----^0----|-2----^2----|
|-2----^1----|-0----^0----|-2----------|
|-2----------|-2----------|-0----------|
|-0----------|-3----------|-0----------|


  B5         B5        Asus2
                               1/4
  W          E H.       E        +Q
|----------|------------------|----------|
|----------|-----------12b14==|=(12)r----|
|-4--------|-4---------14-----|-(14)-----|
|-4--------|-4----------------|----------|
|-2--------|-2----------------|----------|
|-x--------|-x----------------|----------|


 Guitar Solo
  Q=116
  E5/B
 4/4
  Gtr II
   S  T  S    S  S    T  S  S  S  S  S  S  S  S  S  S  S
|-12h15p12------12h==15p12-------------------------------|
|------------15------------15-12h15p12----12h15p12----12-|
|--------------------------------------14----------13----|
|--------------------------------------------------------|
|--------------------------------------------------------|
|--------------------------------------------------------|
|
| Gtr I
|  E       E       E        S  E     S  S  S  S  S  S  S
|--------------------------------------------------------|
|--------------------------------------------------------|
|--9-------9-------9--------9--9-----9--9--9--9--9--9--9-|
|--9-------9-------9--------9--9-----9--9--9--9--9--9--9-|
|--7-------7-------7--------7--7-----7--7--7--7--7--7--7-|
|--7-------7-------7--------7--7-----7--7--7--7--7--7--7-|


  C                    D
   S  T  T  S  S  S  S  T  T  S  S  T  T  S  S  T  T  S  E
|------------------------------------------------------------|
|------------------------------------------------------------|
|-14p12h14p12----12------------------------------------------|
|-------------14----14p12h14p12------------------------------|
|-------------------------------14p12h14p12-12p10h12p10------|
|-------------------------------------------------------12\--|
|
|  E        S  E     S  E        S  E        S  S     S  E
|------------------------------------------------------------|
|----------------------10-------10-10-------10-10----10-10---|
|--9--------9--9-----9-11-------11-11-------11-11----11-11---|
|-10-------10-10----10-12-------12-12-------12-12----12-12---|
|-10-------10-10----10-12-------12-12-------12-12----12-12---|
|--8--------8--8-----8-10-------10-10-------10-10----10-10---|


  E5/B
  S  E.      E.      E.      E.        E.
|-----------------------------------------------|
|---12------14------15------16--------17--------|
|---14b16---16b18---17b19---18b20-----19b21-----|
|-----------------------------------------------|
|-----------------------------------------------|
|-----------------------------------------------|
|
| E       E  E    S  E    S  S    S S  S    S S
|-----------------------------------------------|
|-----------------------------------------------|
|-9-------9--9----9--9----9--9----9-9--9----9-9-|
|-9-------9--9----9--9----9--9----9-9--9----9-9-|
|-7-------7--7----7--7----7--7----7-7--7----7-7-|
|-7-------7--7----7--7----7--7----7-7--7----7-7-|


  C                 D
   S  S  S  S  S  S  S  E     E  E.        E
|---------------------------------------------|
|---------------------------------------------|
|-12h14p12h14h16p12-12-12S====9S14------------|
|----------------------12S====9S14------------|
|---------------------------------------------|
|---------------------------------------------|
|
|  E     S  E     S  E     S  E  S   S  S  E
|---------------------------------------------|
|--8-----8--8-----8-10----10-10-10--10-10-10--|
|--9-----9--9-----9-11----11-11-11--11-11-11--|
|-10----10-10----10-12----12-12-12--12-12-12--|
|-10----10-10----10-12----12-12-12--12-12-12--|
|--8-----8--8-----8-10----10-10-10--10-10-10--|


  E5/B                                               C                      D
   T       T       T       T         T                   T         T
   |-3--|  |-3--|  |-3--|  |--3---|  |--3---|  |--3---|  |--3---|  |--3---|
   S S  S  S S  S  S S  S  S S    S  S S    S  S S    S  S S    S  S S    S
|----------------------------------------------------------------------------|
|-16p9h12-15p9h12-16p9h12-15p9h==12-16p9h==12-15p9h==12-16p9h==12-15p9h==12--|
|----------------------------------------------------------------------------|
|----------------------------------------------------------------------------|
|----------------------------------------------------------------------------|
|----------------------------------------------------------------------------|
|
|  E       E       E       S   E         S     S   S     S   S     S   S
|----------------------------------------------------------------------------|
|----------------------------------------------------------------------------|
|--9-------9-------9-------9---9---------9-----9---9-----9---9-----9---9-----|
|--9-------9-------9-------9---9---------9-----9---9-----9---9-----9---9-----|
|--7-------7-------7-------7---7---------7-----7---7-----7---7-----7---7-----|
|--7-------7-------7-------7---7---------7-----7---7-----7---7-----7---7-----|


  C                 D
   S  E     S  E     S E     S S  S  Q
|---------------------------------------------|
|---------------------------------------------|
|--9S14----12S16----14S9-----7-7--9--9--------|
|---------------------------------------------|
|---------------------------------------------|
|---------------------------------------------|
|
|  E     S  E     S  E    S  E    S  S  S  E
|---------------------------------------------|
|--8-----8--8-----8-10---10-10---10-10-10-10--|
|--9-----9--9-----9-11---11-11---11-11-11-11--|
|-10----10-10----10-12---12-12---12-12-12-12--|
|-10----10-10----10-12---12-12---12-12-12-12--|
|--8-----8--8-----8-10---10-10---10-10-10-10--|


  E5           A5/E  Em    E      C                 D    D5   D
   \3
   W                               S  S  S  S  S  S  E H
|-------------------------------|---------------------------------|
|-14tr12------------------------|---------------------------------|
|-------------------------------|-16S14-12-16S14p12-14------------|
|-------------------------------|-------------------14------------|
|-------------------------------|---------------------------------|
|-------------------------------|---------------------------------|
|
|                                                         PM
|  E      S  E  S  E  S  E S Q     E     S  E     S  E E  S S  Q
|-------------------------------|---------------------------------|
|-------------------------------|--8-----8--8-----8-10--------10--|
|-16-----15-15-14-14-12-12-9-9--|--9-----9--9-----9-11--------11--|
|--x------x--x--x--x--x--x-x-x--|-10----10-10----10-12---12---12--|
|-14-----13-13-12-12-10-10-7-7--|-10----10-10----10-12---12---12--|
|--0------0--0--0--0--0--0-0-0--|--8-----8--8-----8-10---10---10--|


 Outro Chorus
  Q=114
  G                         DsusEsus2/B
  E S E S E S E S S S S S   S E S S E S E S S S S E
|-------------------------|-------------------------|
|-3-3-3-3-3-3-3-3-3-3-3-3-|-5-5-7-7-7-7-7-7-7-7-7-7-|
|-4-4-4-4-4-4-4-4-4-4-4-4-|-7-7-9-9-9-9-9-9-9-9-9-9-|
|-5-5-5-5-5-5-5-5-5-5-5-5-|-7-7-9-9-9-9-9-9-9-9-9-9-|
|-5-5-5-5-5-5-5-5-5-5-5-5-|-5-5-7-7-7-7-7-7-7-7-7-7-|
|-3-3-3-3-3-3-3-3-3-3-3-3-|-5-5-7-7-7-7-7-7-7-7-7-7-|


  G                         DsE5E5EmE5E5EmE5EmE5
                            PM--|   PM|   PM
  E S E S E S E S S S S S   S S E E S S E E E E
|-------------------------|-------7-----7---7----|
|-3-3-3-3-3-3-3-3-3-3-3-3-|-5-x-x-8-x-x-8-x-8----|
|-4-4-4-4-4-4-4-4-4-4-4-4-|-7-x-x-9-x-x-9-x-9-9\-|
|-5-5-5-5-5-5-5-5-5-5-5-5-|-7-9-9-9-9-9-9-9-9-9\-|
|-5-5-5-5-5-5-5-5-5-5-5-5-|-5-7-7-7-7-7-7-7-7-7\-|
|-3-3-3-3-3-3-3-3-3-3-3-3-|-5-7-7-7-7-7-7-7-7----|


  G                         DsusEsus2/B
  E S E S E S E S S S S S   S E S S E S E S S S S E
|-------------------------|-------------------------|
|-3-3-3-3-3-3-3-3-3-3-3-3-|-5-5-7-7-7-7-7-7-7-7-7-7-|
|-4-4-4-4-4-4-4-4-4-4-4-4-|-7-7-9-9-9-9-9-9-9-9-9-9-|
|-5-5-5-5-5-5-5-5-5-5-5-5-|-7-7-9-9-9-9-9-9-9-9-9-9-|
|-5-5-5-5-5-5-5-5-5-5-5-5-|-5-5-7-7-7-7-7-7-7-7-7-7-|
|-3-3-3-3-3-3-3-3-3-3-3-3-|-5-5-7-7-7-7-7-7-7-7-7-7-|


  C                                     Dsus2/A   Ebsus2/Bb
   E  S  E  S  E  S  S  S  S  S  S  E   E S E S E S S S Q  +S
|-------------------------------------|------------------------|
|--8--8--8--8--8--8--8--8--8--8--8--8-|-5-5-5-5-5-6-6-6-6--(6)-|
|--9--9--9--9--9--9--9--9--9--9--9--9-|-7-7-7-7-7-8-8-8-8--(8)-|
|-10-10-10-10-10-10-10-10-10-10-10-10-|-7-7-7-7-7-8-8-8-8--(8)-|
|-10-10-10-10-10-10-10-10-10-10-10-10-|-5-5-5-5-5-6-6-6-6--(6)-|
|--8--8--8--8--8--8--8--8--8--8--8--8-|-5-5-5-5-5-6-6-6-6--(6)-|


  C
   E  S  E  S  E  S  S  S  S  S  S  E
|-------------------------------------|
|--8--8--8--8--8--8--8--8--8--8--8--8-|
|--9--9--9--9--9--9--9--9--9--9--9--9-|
|-10-10-10-10-10-10-10-10-10-10-10-10-|
|-10-10-10-10-10-10-10-10-10-10-10-10-|
|--8--8--8--8--8--8--8--8--8--8--8--8-|
|
| Gtrs I, III
|  W
|-------------------------------------|
|-------------------------------------|
|-------------------------------------|
|-------------------------------------|
|-------------------------------------|
|-------------------------------------|


  Dsus2/A   Ebsus2/Bb             C
  E S E S E S S S S S S S S   +E   E.    H    E.
|---------------------------|---------------------*|
|-5-5-5-5-5-6-6-6-6-6-6-6-6-|-(6)--8\-------------*|
|-7-7-7-7-7-8-8-8-8-8-8-8-8-|-(8)--9\-------------*|
|-7-7-7-7-7-8-8-8-8-8-8-8-8-|-(8)-10\-------------*|
|-5-5-5-5-5-6-6-6-6-6-6-6-6-|-(6)-10\-------------*|
|-5-5-5-5-5-6-6-6-6-6-6-6-6-|-(6)--8\-------------*|
|
| W                            E   E.    H    E.
|---------------------------|---------------------*|
|---------------------------|-----17\-------------*|
|---------------------------|-----19b21\----------*|
|---------------------------|---------------------*|
|---------------------------|---------------------*|
|---------------------------|---------------------*|


Duration Legend
---------------
W - whole; H - half; Q - quarter; E - 8th; S - 16th; T - 32nd; X - 64th; a - acciaccatura
+ - note tied to previous; . - note dotted; .. - note double dotted
Uncapitalized letters represent notes that are staccato (1/2 duration)
Irregular groupings are notated above the duration line
Duration letters will always appear directly above the note/fret number it represents the
duration for.  Duration letters with no fret number below them represent rests.  Multi-
bar rests are notated in the form Wxn, where n is the number of bars to rest for.  Low
melody durations appear below the staff

Tablature Legend
----------------
 h   - hammer-on
 p   - pull-off
 b   - bend
 pb  - pre-bend
 r   - bend release (if no number after the r, then release immediately)
 /\  - slide into or out of (from/to "nowhere")
 s   - legato slide
 S   - shift slide
  - natural harmonic
[n]  - artificial harmonic
n(n) - tapped harmonic
 ~   - vibrato
 tr  - trill
 T   - tap
 TP  - trem. picking
 PM  - palm muting
\n/  - tremolo bar dip; n = amount to dip
 \n  - tremolo bar down
 n/  - tremolo bar up
/n\  - tremolo bar inverted dip
 =   - hold bend; also acts as connecting device for hammers/pulls
 <>  - volume swell (louder/softer)
 x   - on rhythm slash represents muted slash
 o   - on rhythm slash represents single note slash

Misc Legend
-----------
 |  - bar
||  - double bar
||o - repeat start
o|| - repeat end
*|  - double bar (ending)
 :  - bar (freetime)
 $  - Segno
 &  - Coda
Tempo markers -  = BPM(8/16=s8/s16), where s8 = swing 8ths, s16 = swing 16ths
Suggest correction new What's this?
You can suggest a correction to this tab. Community and Mods will review your correction and vote to approve or reject it.
comments
We did not receive enough feedback on this tab! Please rate:
print report bad tab
1 2 3 4 5
guest
You may want to rate the tab now too:
select rating
Please do not post tabs as comments. Select "correction" instead!