Oops, an error
Loading. Please wait.

Days Of The Phoenix Tab

version 2
by AFI
1,787 views 1 this week
2 commentsread comments
1 2 3 4 5
x 3
add to favorites
launch autoscroll
font size
0
reset
how to read this tab
guitar tuner
×
Best way to learn
"Days Of The Phoenix"
Autoscroll
slow
fast
+/-
esc
set tempo
stop
Days of the Phoenix
Art of Drowning
AFI
Jake Walters
standard tuneing

Intro
[------5------2-5---------3-----------------------5-------3----5-----7[8x]-|
[--0--0---0--0-0---00---0----0-----2-------0---0---0--0----0-----0---------|
[--------------------------------2----2------------------------------------|
[--------------------------------------------------------------------------|
[--------------------------------------------------------------------------|
[--------------------------------------------------------------------------|

|--------------5------5-5-2-3-5-------5-5-2-3-5------5-5-3-2----------------|
|-0--3-2-3-3----3-3--------------3-3--------------3-3-----------3-0(letring-|
|---------------------------------------------------------------------------|
|---------------------------------------------------------------------------|
|---------------------------------------------------------------------------|
|---------------------------------------------------------------------------|

"There's no guitar for a little bit, but start the verse on " offering a dream" 
Verse 1
|-777--5-5-5---777---10-10-10----3-3-3------------5-(8x)--------------|
|-777--5-5-5---777---10-10-10----3-3-3------------5-------------------|
|-888--5-5-5---888---10-10-10----3-3-3--0-0-0---5---------------------|
|-999--7-7-7---999---12-12-12----5-5-5--2-2-2---7---------------------|
|-999--7-7-7---999---12-12-12----5-5-5--2-2-2---7---------------------|
|-779--5-5-5---777---10-10-10----3-3-3--0-0-0---5---------------------|


|-777---555---777---101010----333--------555--222---3(hold)-3(p.m.14x)3|
|-777---555---777---101010----333--------555--222---3-------3---------5|
|-888---55-5--888---101010----333--000---555--222---3-------3---------5|
|-999---77-7--999---1212-2----555--222---777--444---5-------5---------7|
|-999---777---999---121212----555--222---777--444---5-------5---------7|
|-777---555---777---101010----333--000---555--222---3-------3---------5| 


Chorus
|-7---------10-------------3(6x)----| 3x
|-7---------10-------------3--------|
|-7---------10-------------3--------|
|-9---9-----12----12-------5--------|
|-9-9---9---12-12----12----5--------|
|-7---------10-------------3--------| 


|-7---------10-------------3(5x)--5--| 
|-7---------10-------------3------5--|
|-7---------10-------------3------5--|
|-9---9-----12----12-------5------7--|
|-9-9---9---12-12----12----5------7--|
|-7---------10-------------3------5--| 

"play the first half of the intro again, this is it"
[------5------2-5---------3-----------------------5-------3----5-----7[8x]-|
[--0--0---0--0-0---00---0----0-----2-------0---0---0--0----0-----0---------|
[--------------------------------2----2------------------------------------|
[--------------------------------------------------------------------------|
[--------------------------------------------------------------------------|
[--------------------------------------------------------------------------|


Verse 2
|-777---5-5-5---777---10-10-10----3-3-3----------5-(8x)----------------|
|-777---5-5-5---777---10-10-10----3-3-3----------5---------------------|
|-888---5-5-5---888---10-10-10----3-3-3--0-0-0---5---------------------|
|-999---7-7-7---999---12-12-12----5-5-5--2-2-2---7---------------------|
|-999---7-7-7---999---12-12-12----5-5-5--2-2-2---7---------------------|
|-777---5-5-5---777---10-10-10----3-3-3--0-0-0---5---------------------|

|-777---555---777---101010----333--------555--222---3(hold)-3(p.m.14x)----5|
|-777---555---777---101010----333--------555--222---3-------3-------------5|
|-888---555---888---101010----333--000---555--222---3-------3-------------5|
|-999---777---999---121212----555--222---777--444---5-------5-------------7|
|-999---777---999---121212----555--222---777--444---5-------5-------------7|
|-777---555---777---101010----333--000---555--222---3-------3-------------5|

 Chorus
|-7---------10-------------3(6x)----| 3x
|-7---------10-------------3--------|
|-7---------10-------------3--------|
|-9---9-----12----12-------5--------|
|-9-9---9---12-12----12----5--------|
|-7---------10-------------3--------| 

|-7---------10-------------3(5x)--5--| 
|-7---------10-------------3------5--|
|-7---------10-------------3------5--|
|-9---9-----12----12-------5------7--|
|-9-9---9---12-12----12----5------7--|
|-7---------10-------------3------5--| 



Solo (clean)
|-----------------------------------------------------------------------|
|-----------------------------------------------------------------------|
|---------------3----------------3---------------3----------------3-----|
|-----0-------0-------0--------0------0--------0-------0--------0-------|
|---4--4----4-------4---4----4------4---4----4-------4---4----4---------|
|-2--------2------2--------2-------2--------2-------2--------2----------|

Solo (distorted)
|----------------333--2222--------------------------------|2x
|-------33--22---000--0000---222--333--5-3-222-333-2------|
|--4444-44--44---------------444--444--4-4-222-222-2------|
|---------------------------------------------------------|
|---------------------------------------------------------|
|---------------------------------------------------------|

bridge
|3(p.m.14x)----5(hold-|
|3-------------5------|
|3-------------5------|
|5-------------7------|
|5-------------7------|
|3-------------5------| 

Chorus
|-7---------10-------------3(8x)----| 3x
|-7---------10-------------3--------|
|-7---------10-------------3--------|
|-9---9-----12----12-------5--------|
|-9-9---9---12-12----12----5--------|
|-7---------10-------------3--------| 

|-7---------10-------------3(7x)--5--| 
|-7---------10-------------3------5--|
|-7---------10-------------3------5--|
|-9---9-----12----12-------5------7--|
|-9-9---9---12-12----12----5------7--|
|-7---------10-------------3------5--| 

Outro
[------5------2-5---------3-----------------------5-------3----5-----7[8x]-|
[--0--0---0--0-0---00---0----0-----2-------0---0---0--0----0-----0---------|
[--------------------------------2----2------------------------------------|
[--------------------------------------------------------------------------|
[--------------------------------------------------------------------------|
[--------------------------------------------------------------------------|


|---------------5------5-5-2-3-5-------5-5-2-3-5------5-5-3-2------------|
|-0--3-2-3-3----3-3--------------3-3--------------3-3-----------3-2(hold)|
|------------------------------------------------------------------------|
|------------------------------------------------------------------------|
|------------------------------------------------------------------------|
|------------------------------------------------------------------------|
Suggest correction
Give kudos to tab author, rate the tab!
1 2 3 4 5
comments
print report bad tab
2 comments total.
0 reply
deadbirdy 50 Jun 24, 2004 08:00 PM

Official tab is available at afireinside.net/music
Looks like a decent tab but definately not right.

0 reply
DownbëloW 102 Jun 27, 2006 05:32 PM

Dude. Props. It's not right, but at least you tried...not like all of the other Days of the Phoenix tabs that posers copy pasted from afireinside.net.

guest
You may want to rate the tab now too:
select rating
Wanna post a correction for this tab? Suggest correction