Oops, an error
Loading. Please wait.

Days Of The Phoenix Bass Tab

version 4
version 4
by AFI
323 views 1 this week
no commentswrite comment
1 2 3 4 5
please rate
add to favorites
launch autoscroll
font size
0
reset
guitar tuner
Autoscroll
slow
fast
+/-
esc
set tempo
stop
Help us to improve Ultimate-Guitar.com Take our survey!
×
Author
Difficulty
novice
Ok, I decided to tab this one, I love this song to death. It sounds perfectly right,
anyone see a mistake please let me know.

There is the guitar intro and THEN the bass comes in


BASS INTRO:
G |----------------------------------------|
D |----------------------------------------|
A |------5-5---------------5-5-------------|
E  |--7-7-----3-3--5-5--7-7-----3-3--5-5---|

VERSE
G |-----------------------------------------------------|
D |-----------------------------------------------------|
A |-----------------4-5-5-------5-----7-----------------|
E  |-7-7-3-5-5-5-7-7-------2-3-3---4-4--5-5-5-5-5-5-----|

G |---------------------------------------------------------------------|
D |---------------------------------------------------------------------|
A |-----------------4-5-5-----------------------------------------------|
E  |-7-7-3-5-5-5-7-7-------2-3-3-3-4-4-4-5-5-5-2-2-2-3-3-3-3-5-5-5-5----|

CHORUS:
G |-----------------------------------------------------------------------|
D |-----------------------------------------------------------------------|
A |----------------10-10-10-10-10-10----------------10-10-10-10-10-10-----|
E  |-7-7-7-10-10-10-------------------7-7-7-10-10-10----------------------|

G |-----------------------------------------------------------------------|
D |-----------------------------------------------------------------------|
A |-----------------10-10-10-10-10-10----------------10-10-10-12-12-12----|
E  |-7-7-7-10-10-10--------------------7-7-7-10-10-10---------------------|

SOLO:
G |-----------------|-----------------------------------------------------------|
D |-----------------|---9-----7-----5-----7-----9-----7-----5-----4-------------|
A |-----------------|-----------------------------------------------------------|
E  |-7-5-3-5-7-5-3-5-|-7---7-5---5-3---3-5---5-7---7-5---5-3---3-2---2-3r--5r---|

PRE-VERSE:
G |------------------------------------------------------------------|
D |------------------------------------------------------------------|
A |---------5-5-5-5------------------------5-5-5-5-------------------|
E  |-7-7-7-7--------3-3-3-3-5-5-5-5-7-7-7-7--------3-3-3-3-5-5-5-5---|

ENDING:
G |-----------------------------------------------------------|
D |-----------------------------------------------------------|
A |-----------------4-5-5-------------------------------------|
E  |-7-7-3-5-5-5-7-7------2-3-3-3-4-4-4-5-5-5-2-2-2-2-2-7r----|


INTRO
VERSE (2X)
CHORUS
PRE-VERSE
VERSE
CHORUS
SOLO
CHORUS
PRE-VERSE
ENDING
Suggest correction
What's this?
You can suggest a correction to this tab. Community and Mods will review your correction and vote to approve or reject it.
comments
We did not receive enough feedback on this tab! Please rate:
print report bad tab
1 2 3 4 5
guest
You may want to rate the tab now too:
select rating
Please do not post tabs as comments. Select "correction" instead!