Oops, an error
Loading. Please wait.

Days Of The Phoenix Tab

version 4
by AFI
1,356 views 1 this week
no commentswrite comment
1 2 3 4 5
worth learning
x 1
add to favorites
launch autoscroll
font size
0
reset
how to read this tab
guitar tuner
Tab Pro tools
  • play this tab
  • loop segment
  • change instrument
  • show fretboard
  • metronome
Autoscroll
slow
fast
+/-
esc
set tempo
stop
Contributor
----------------------------------------------------------------------------
                             days of the phoenix-AFI
----------------------------------------------------------------------------
Tabbed by:MIKE ROCH (matt)
Email:doesnt work

Tuning:standard (eadgbe)

intro
e|------5----2---2-----3---------------5-----2-3--5--7777777777777777-------|
B|---------3---3--------------3-2---------3---------------------------------|
G|----4-------------4-----22-------4----------------------------------------|
D|--------------------------------------------------------------------------|
A|--------------------------------------------------------------------------|
E|--------------------------------------------------------------------------|

e|---------2--5---3--2--3--5---5---2-3-5-----5----5--3--2-------------------|
B|-0-3-2-3-------3-3--------33--3--------33----3---------3p0----------------|
G|--------------------------------------------------------------------------|
D|--------------------------------------------------------------------------|
A|--------------------------------------------------------------------------|
E|--------------------------------------------------------------------------|

guitar doesnt play first part of this verse

hears the second half

verse 1:
e|--7-7-7-7-7-7-7-7---7----------5-----------7---------10-------------------|
B|--7-7-7-7-7-7-7-7---7----------5-----------7---------10-------------------|
G|--8-8-8-8-8-8-8-8---8----------6-----------8---------11-------------------|
D|--9-9-9-9-9-9-9-9---9----------7-----------9---------12-------------------|
A|--9-9-9-9-9-9-9-9---9----------7-----------9---------12-------------------|
E|--7-7-7-7-7-7-7-7---7----------5-----------7---------10-------------------|
    offering a dream  words were as mistical as puring animals

e|----3---------1---------3--------3---3-----3------------------------------|
B|----3---------1---------3--------3---3-----3------------------------------|
G|----4---------2---------4--------4---4-----4------------------------------|
D|----5---------3---------5--------5---5-----5------------------------------|
A|----5---------3---------5--------5---5-----5------------------------------|
E|----3---------1---------3--------3---3-----3------------------------------|
  the circle of rage, the ghost on the stage appeard

e|-7-----------5--------7-----------------10--------------------------------|
B|-7-----------5--------7-----------------10--------------------------------|
G|-8-----------6--------8-----------------11--------------------------------|
D|-9-----------7--------9-----------------12--------------------------------|
A|-9-----------7--------9-----------------12--------------------------------|
E|-7-----------5--------7-----------------10--------------------------------|
   time was so tangible im never letting it go

e|-3-------------1----------5--------1------3-------------------------------|
B|-3-------------1----------5--------1------3-------------------------------|
G|-4-------------2----------6--------2------4-------------------------------|
D|-5-------------3----------7--------3------5-------------------------------|
A|-5-------------3----------7--------3------5-------------------------------|
E|-3-------------1----------5--------1------3-------------------------------|
  ghost stories handed down, reached secret tunnels below

pre chorus
pm......|
e|-3-3-3|3-3-3--------------------------------------------------------------|
B|-3-3-3|3-3-3--------------------------------------------------------------|
G|-4-4-4|4-4-4--------------------------------------------------------------|
D|-5-5-5|5-5-5--------------------------------------------------------------|
A|-5-5-5|5-5-5--------------------------------------------------------------|
E|-3-3-3|3-3-3--------------------------------------------------------------|
         no one could see me
chorus 1
e|-7-----10--------3--------------------------------------------------------|
B|-7-----10--------3--------------------------------------------------------|
G|-8-8---11-11-----4-4------------------------------------------------------|
D|-9--9--12---12---5--5-----------------------------------------------------|
A|-9---9-12-----12-5---5----------------------------------------------------|
E|-7-----10--------3--------------------------------------------------------|
   ooooohhhhhhhhh  i fell into yesterday

e|-7-----10--------3--------------------------------------------------------|
B|-7-----10--------3--------------------------------------------------------|
G|-8-8---11-11-----4-4------------------------------------------------------|
D|-9--9--12---12---5--5-----------------------------------------------------|
A|-9---9-12-----12-5---5----------------------------------------------------|
E|-7-----10--------3--------------------------------------------------------|
   ooooohhhhhhhh  are dreams seemed not far away

e|-7----------10----------3-------------------------------------------------|
B|-7----------10----------3-------------------------------------------------|
G|-8-8--------11-11-------4-4-----------------------------------------------|
D|-9--9-------12---12-----5--5----------------------------------------------|
A|-9---9------12-----12---5---5---------------------------------------------|
E|-7----------10----------3-------------------------------------------------|
  i wanted to i wanted to i wanted to stay

e|-7-----10--------3-----------7-------------------------------------------|
B|-7-----10--------3-----------7-------------------------------------------|
G|-8-8---11-11-----4-4---------8-------------------------------------------|
D|-9--9--12---12---5--5--------9-------------------------------------------|
A|-9---9-12-----12-5---5-------9-------------------------------------------|
E|-7-----10--------3-----------7-------------------------------------------|
  ooooohhhh        i fell into fantasy

e|------5----2---2-----3---------------5-----2-3--5--7777777777777777-------|
B|---------3---3--------------3-2---------3---------------------------------|
G|----4-------------4-----22-------4----------------------------------------|
D|--------------------------------------------------------------------------|
A|--------------------------------------------------------------------------|
E|--------------------------------------------------------------------------|

verse 2
e|-7----------5-----------7---------10--------------------------------------|
B|-7----------5-----------7---------10--------------------------------------|
G|-8----------6-----------8---------11--------------------------------------|
D|-9----------7-----------9---------12--------------------------------------|
A|-9----------7-----------9---------12--------------------------------------|
E|-7----------5-----------7---------10--------------------------------------|
   words were as mystical as puring animals
e|----3---------1---------3--------3---3-----3------------------------------|
B|----3---------1---------3--------3---3-----3------------------------------|
G|----4---------2---------4--------4---4-----4------------------------------|
D|----5---------3---------5--------5---5-----5------------------------------|
A|----5---------3---------5--------5---5-----5------------------------------|
E|----3---------1---------3--------3---3-----3------------------------------|
  the circle of rage, the ghost on the stage appeard

e|-7-----------5--------7-----------------10--------------------------------|
B|-7-----------5--------7-----------------10--------------------------------|
G|-8-----------6--------8-----------------11--------------------------------|
D|-9-----------7--------9-----------------12--------------------------------|
A|-9-----------7--------9-----------------12--------------------------------|
E|-7-----------5--------7-----------------10--------------------------------|
   time was so tangible im never letting it go

e|-3-------------1----------5--------1------3-------------------------------|
B|-3-------------1----------5--------1------3-------------------------------|
G|-4-------------2----------6--------2------4-------------------------------|
D|-5-------------3----------7--------3------5-------------------------------|
A|-5-------------3----------7--------3------5-------------------------------|
E|-3-------------1----------5--------1------3-------------------------------|
  ghost stories handed down, reached secret tunnels below

pre chorus
pm......
e|-3-3-3|3-3-3--------------------------------------------------------------|
B|-3-3-3|3-3-3--------------------------------------------------------------|
G|-4-4-4|4-4-4--------------------------------------------------------------|
D|-5-5-5|5-5-5--------------------------------------------------------------|
A|-5-5-5|5-5-5--------------------------------------------------------------|
E|-3-3-3|3-3-3--------------------------------------------------------------|
        no one could see me

chorus 2
e|-7-----10--------3--------------------------------------------------------|
B|-7-----10--------3--------------------------------------------------------|
G|-8-8---11-11-----4-4------------------------------------------------------|
D|-9--9--12---12---5--5-----------------------------------------------------|
A|-9---9-12-----12-5---5----------------------------------------------------|
E|-7-----10--------3--------------------------------------------------------|
   ooooohhhhhhhhh  i fell into yesterday

e|-7-----10--------3--------------------------------------------------------|
B|-7-----10--------3--------------------------------------------------------|
G|-8-8---11-11-----4-4------------------------------------------------------|
D|-9--9--12---12---5--5-----------------------------------------------------|
A|-9---9-12-----12-5---5----------------------------------------------------|
E|-7-----10--------3--------------------------------------------------------|
   ooooohhhhhhhh  are dreams seemed not far away

e|-7----------10----------3-------------------------------------------------|
B|-7----------10----------3-------------------------------------------------|
G|-8-8--------11-11-------4-4-----------------------------------------------|
D|-9--9-------12---12-----5--5----------------------------------------------|
A|-9---9------12-----12---5---5---------------------------------------------|
E|-7----------10----------3-------------------------------------------------|
  i wanted to i wanted to i wanted to stay

e|-7-----10--------3-----------7-------------------------------------------|
B|-7-----10--------3-----------7-------------------------------------------|
G|-8-8---11-11-----4-4---------8-------------------------------------------|
D|-9--9--12---12---5--5--------9-------------------------------------------|
A|-9---9-12-----12-5---5-------9-------------------------------------------|
E|-7-----10--------3-----------7-------------------------------------------|
  oooohhhhhhhhhhh  i fell into fantasy

bridge
e|--------------------------------------------------------------------------|
B|-------------------3-------------------3--------------3-----------------3-|
G|-------0--------0---------0---------0--------0------0--------0--------0---|
D|----4----4----4--------4----4-----4--------4---4--4--------4---4----4-----|
A|--2---------2--------2---------2---------2-------2-------2--------2-------|
E|--------------------------------------------------------------------------|
 a second guitar plays this ^^^^^^^ throughout the rest of the bridge
e|-------------------3-3-3-2-2-2-0------------------------------------------|
B|---0-0-0-3-3-2-2-2-0-0-0-0-0-0-0---2-2-2-3-3-3-5-5-2-2-2-3-3-3-2-2--------|
G|---4-4-4-4-4-4-4-4-----------------2-2-2-2-2-2-2-2-2-2-2-2-2-2-2-2--------|
D|--------------------------------------------------------------------------|
A|--------------------------------------------------------------------------|
E|--------------------------------------------------------------------------|

e|------------------3-3-3-2-2-2-0-------------------------------------------|
B|--0-0-0-3-3-2-2-2-0-0-0-0-0-0-0--2-2-2-3-3-3-5-5-2-2-2-3-3-3-2-2----------|
G|--4-4-4-4-4-4-4-4----------------2-2-2-2-2-2-2-2-2-2-2-2-2-2-2-2--2-------|
D|------------------------------------------------------------------2-------|
A|------------------------------------------------------------------0-------|
E|--------------------------------------------------------------------------|

pre chorus

pm.......|
e|--3-3-3|-3-3-3------------------------------------------------------------|
B|--3-3-3|-3-3-3------------------------------------------------------------|
G|--4-4-4|-4-4-4------------------------------------------------------------|
D|--5-5-5|-5-5-5------------------------------------------------------------|
A|--5-5-5|-5-5-5------------------------------------------------------------|
E|--3-3-3|-3-3-3------------------------------------------------------------|
          no one could see me

chorus 3
e|-7-----10--------3--------------------------------------------------------|
B|-7-----10--------3--------------------------------------------------------|
G|-8-8---11-11-----4-4------------------------------------------------------|
D|-9--9--12---12---5--5-----------------------------------------------------|
A|-9---9-12-----12-5---5----------------------------------------------------|
E|-7-----10--------3--------------------------------------------------------|
   ooooohhhhhhhhh  i fell into yesterday

e|-7-----10--------3--------------------------------------------------------|
B|-7-----10--------3--------------------------------------------------------|
G|-8-8---11-11-----4-4------------------------------------------------------|
D|-9--9--12---12---5--5-----------------------------------------------------|
A|-9---9-12-----12-5---5----------------------------------------------------|
E|-7-----10--------3--------------------------------------------------------|
   ooooohhhhhhhh  are dreams seemed not far away

e|-7----------10----------3-------------------------------------------------|
B|-7----------10----------3-------------------------------------------------|
G|-8-8--------11-11-------4-4-----------------------------------------------|
D|-9--9-------12---12-----5--5----------------------------------------------|
A|-9---9------12-----12---5---5---------------------------------------------|
E|-7----------10----------3-------------------------------------------------|
  i wanted to i wanted to i wanted to stay

e|-7-----10--------3-----------7-------------------------------------------|
B|-7-----10--------3-----------7-------------------------------------------|
G|-8-8---11-11-----4-4---------8-------------------------------------------|
D|-9--9--12---12---5--5--------9-------------------------------------------|
A|-9---9-12-----12-5---5-------9-------------------------------------------|
E|-7-----10--------3-----------7-------------------------------------------|
  oooohhhhhhhhhhh  i fell into fantasy

outro
e|----5---2----2----3-------------------5-----2---3-777777777777777---------|
B|------3----3----------------3-2----------3--------------------------------|
G|--4------------4--------22----------4-------------------------------------|
D|--------------------------------------------------------------------------|
A|--------------------------------------------------------------------------|
E|--------------------------------------------------------------------------|
                are dreams seemd not far away, are dreams seemd not far away

e|------------2-5---3---2-3-5---5--2-3-5----5---5-3-2---5-3-2----------------|
B|---0-3-2-3------3---3-------33--3-------33--3-------3-------3-2------------|~~let ring
G|---------------------------------------------------------------------------|
D|---------------------------------------------------------------------------|
A|---------------------------------------------------------------------------|
E|---------------------------------------------------------------------------|
               are dreams seemed not far away       i fell into fantasy


i think thats it... any problems just post a comment!! have fun

| /  slide up
| \  slide down
| h  hammer-on
| p  pull-off
| ~  vibrato
| +  harmonic
| x  Mute note
============================================================================
comments
We did not receive enough feedback on this tab! Please rate:
print report bad tab
1 2 3 4 5
I want to post or [tab]
guest
You may want to rate the tab now too:
select rating
Please do not post tabs as comments. Select "correction" instead!