Oops, an error
Loading. Please wait.

Days Of The Phoenix Tab

version 5
by AFI
654 views 1 this week
1 commentread comment
1 2 3 4 5
1 last vote to show rating
add to favorites
launch autoscroll
font size
0
reset
how to read this tab
guitar tuner
Autoscroll
slow
fast
+/-
esc
set tempo
stop
Help us to improve Ultimate-Guitar.com Take our survey!
×
Author
Difficulty
intermediate
Band-Afi
Song-Days of the Phoenix
Tuning-Standerd

This song tests your ability to stretch, so good luck.

E|------------------|--------------------------------------------|
B|------------------|--------------------------------------------|
G|---14-----12----11|-----12---11------12---11-----6-----9-----6-|
D|-9-9--9-9-9-9--9--|9-9-9-9-9------9-----9-----7--7-7-7---7-----|x2
A|------------------|--------------------------------------------|
E|------------------|--------------------------------------------|

2nd time stop at the line and play this....


E|---------------------------------------------------------|
B|-10/12-12-12-12-12-12...you get the idea...--------------|
G|-x--x--x--x--x--x--x-------------------------------------|
D|-7/-9--9--9--9--9--9-------------------------------------|
A|---------------------------------------------------------|
E|---------------------------------------------------------|


Rythim guitar
E|------------------------------------|
B|------------------------------------|
G|----------7--7--7-------------------|
D|-9---9--9-7--7--7-5--5--5-7--7--7---|x2
A|-9---9--9-5--5--5-5--5--5-7--7--7---|
E|-7---7--7---------3--3--3-5--5--5---|

Lead guitar
E|------------------------------------------------|
B|-----------------10------------10--7--8--10-----|
G|-4--7--6-7--7--------7--7-7-7-------------------|
D|------------------------------------------------|
A-------------------------------------------------|
E|------------------------------------------------|

E|-----------------------------------------------------|
B|-------10-------7---8---10---------10----8--7--------|
G|--7-7-------7---7-------------7-7-----7-------7\--4--| FADE OUT
D|-----------------------------------------------------|
A|-----------------------------------------------------|
E|-----------------------------------------------------|


verse (bass only in the begining)
                          |--|
E|------------------------|-------------------------------------|
B|------------------------|-------------------------------------|
G|------------------------|-------------------------------------|
D|-7-7-7-7-7-7-7-7-7-7-7/-|-9--9--9-9----7--7--7-7----9--9--9-9-|
A|-7-7-7-7-7-7-7-7-7-7-7/-|-9--9--9-9----7--7--7-7----9--9--9-9-|
E|-5-5-5-5-5-5-5-5-5-5-5/-|-7--7--7-7----5--5--5-5----7--7--7-7-|
                          |--|

          second time stop at line and go to next riff        |--|
E|----------------------------------------------|------------|   |
B|----------------------------------------------|------------|   |
G|-7--7--7-7--------------9--9--9-9-------------|------------|   |-x2
D|-7--7--7-7---5--5--5-5--9--9--9-9---7--7--7-7-|-7--7--7-7--|   |
A|-5--5--5-5---5--5--5-5--7--7--7-7---5--5--5-5-|-5--5--5-5--|   |
E|-------------3--3--3-3--------------5--5--5-5-|-5--5--5-5--|   |
                                                              |--|

E|----------------------------------------------------------|
B|----------------------------------------------------------|
G|----------------------------------------------------------|
D|--4--4--4--4--5----5--5--5--5--5---2--7-7-7-7-7-7-7-7-----|
A|--4--4--4--4--5----5--5--5--5--5---2--7-7-7-7-7-7-7-7-----|
E|--2--2--2--2--3----3--3--3--3--3---0--5-5-5-5-5-5-5-5-----|
                   |--PM--|

Chorus
E|---------------------------------------------|----------------|
B|---------------------------------------------|----------------|
G|--------7--------------11--------------4-----|--------4-------|
D|-9--9-----9----12--12-----12-----5--5----5---|--5--5----5-----|x4
A|-9--9-------9--12--12-------12---5--5------5-|--5--5-----5--- |
E|-7--7----------10--10------------3--3--------|--3--3----------|

E|----------------|
B|----------------|
G|----------------|
D|-7--7-7--7-7\---|
A|-7--7-7--7-7\---|
E|-5--5-5--5-5\---|

Bridge (clean)
E|-------------------------|
B|----------------------3--|
G|----0---------------0----|
D|--4----4----------4------|
A|-2--------------2--------|
E|-------------------------|

distorted part (all palm muted)

E|------------------------------------------|
B|------------------------------------------|
G|----------7-7--6-6--12------11-------9----|
D|-9-9-9-9--9-9--9-9--9--9-9--9---9-9--9--9-|
A|-9-9-9-9--9-9--9-9--9--9-9--9---9-9--9--9-|
E|------------------------------------------|

E|---------------------------------------------|
B|---------------------------------------------|   2nd time replace  6
G|-6------7--------9-----6--------7-------6-6--|                     8
D|-5-5-5--5--5-5---5--5--7--7-7---7--7-7--8-8--|x2                   7
A|-5-5-5--------------------7-7------7-7--7-7--|    with 6
E|---------------------------------------------|         7
                                                         7

                                                                            Ending
E|------------------------|
B|------------------------|
G|--------------------2---|
D|-5--5-5-5-5-5---2---2---|
A|-5--5-5-5-5-5---2---0---|
E|-3--3-3-3-3-3---0-------|
     |--PM---|
Suggest correction
Give kudos to tab author, rate the tab!
1 2 3 4 5
comments
print report bad tab
1 comment total.
0 reply
DownbëloW 102 Jan 10, 2007 10:28 PM

this tab is bad. there's no other way to describe it, i'm sorry. there's a 100% correct version already posted, look for the comments saying "this was stolen of of afireinside.net" thats the correct tab.

guest
You may want to rate the tab now too:
select rating
Wanna post a correction for this tab? Suggest correction