Oops, an error
Loading. Please wait.

Death Of Seasons Tab

version 1
version 1

Intro

Whole song

Interactive

by AFI
6,852 views 1 this week
12 commentsread comments
1 2 3 4 5
accurate
x 24
add to favorites
launch autoscroll
font size
0
reset
how to read this tab
guitar tuner
Autoscroll
slow
fast
+/-
esc
set tempo
stop
Help us to improve Ultimate-Guitar.com Take our survey!
×
Author
this is only the into and i think this is the right intro
rate this tab

e|--------------------------------------------------------------------------|
G|--------------------------------------------------------------------------|
B|--------------------------------------------------------------------------|
D|--------------------------------------------------------------------------|x3
A|----4--6----7--6----6--4--2--4-------1--2-----4--2--2--1------------------|
E|--4-------4------4--------------4-4--------4--------------2--4------------|
Suggest correction
comments
print report bad tab
12 comments total. Showing first comments.
0 reply
TheWillofDeath 10 wrote on August 3 2005, 12:00 am

When you hit the two 4's on the Bottom E string. For some reason it doesnt right. I'll check later tomorrow to see if maybe its a bit off or what.

0 reply
Cybersk8ers7 10 wrote on October 7 2005, 11:55 am

Your tab was very close but you messed up om the end this is how it actually goes.
E|----------------------------------------------------------------|
B|----------------------------------------------------------------|
G|----------------------------------------------------------------|
D|----------------------------------------------------------------|x3
A|---4--6----7--6----6--4--2--4-------1--2-----4--2---2--1--------|
E|-4-------4------4----------------4--------4-------4-------4--2--|

0 reply
Cybersk8ers7 10 wrote on October 7 2005, 11:58 am

This is how the whole intro part goes. You were very close but you got the end mixed up.
e|-------------------------------------------------------------| G|---------------------------------------------------------------|
B|---------------------------------------------------------------|
D|---------------------------------------------------------------|x3
A|----4--6----7--6----6--4--2--4----1--2-----4--2----2--1--------|
E|--4-------4------4--------------4-------4--------4--------4---2|

guest
You may want to rate the tab now too:
select rating
Wanna post a correction for this tab? Suggest correction