Oops, an error
Loading. Please wait.

Death Of Seasons Tab

version 1
version 1

Whole song

Interactive

by AFI
11,301 views 6 this week
11 commentsread comments
1 2 3 4 5
x 14
add to favorites
launch autoscroll
font size
0
reset
how to read this tab
guitar tuner
Autoscroll
slow
fast
+/-
esc
set tempo
stop
Help us to improve Ultimate-Guitar.com Take our survey!
×
Author
Band: AFI (A Fire Inside)
Album: Sing The Sorrow (Track 7)
Song: Death Of Seasons
Note: This song (and every song on the album, except "The Leaving Song")
is tuned a half-step flat.
Tabbed By: LedZep420 (dm_420@hotmail.com)

Intro:
(Clean)
E------------|
B-1---0------|
G---------9--|
D-2---0------|
A---------7--|
E------------|

(Distorted)
E-------------------------------------------------------|
B-------------------------------------------------------|
G-------------------------------------------------------|
D-2222---2222---2222---2222---------2222---2222---2222--|
A-0000---0000---0000---0000--2222---0000---0000---0000--|
E----------------------------0000-----------------------|

Verse:
E------------------------------------------------1-1--|
B----------------------5-5-----------------------1-1--|
G----------------------5-5-----------------------2-2-o|
D-3-2-2--3-2-2--3-2-2--5-5-----------------------3-3-o|
A-0-0-0--0-0-0--0-0-0--3-3--3-2-2--3-2-2--3-2-2-------|
E---------------------------3-3-3--3-3-3--3-3-3-------|

1st Time
E-------------------------------------3------|
B-------------------------------------3------|
G-10-9-9-10-9-9-10-9-9----------------4------|
D-7--7-7-7--7-7-7--7-7--7--7--7--5----5---X\-|
A-----------------------7--7--7--5----5---X\-|
E-----------------------5--5--5--3----3---X\-|

2nd Time
E-------------------------------------3------|
B-------------------------------------3------|
G-5-4-0--9-7-7--10-9-9----------------4------|
D-7-7-0--7-7-7--7--7-7--7--7--7--5----5---X\-|
A-----------------------7--7--7--5----5---X\-|
E-----------------------5--5--5--3----3---X\-|

1st Chorus:
E--------|-3--3-3-|-----------------|--------------------|--------|-3--3-3-|
B-5--5-5-|-3--3-3-|-----------------|--------------------|-5--5-5-|-3--3-3-|
G-5--5-5-|-4--4-4-|-9--9--9---7-7-7-|-10-10-10--9--9--9--|-5--5-5-|-4--4-4-|
D-5--5-5-|-5--5-5-|-10-10-10--9-9-9-|-12-12-12--10-10-10-|-5--5-5-|-5--5-5-|
A-3--3-3-|-5--5-5-|-----------------|--------------------|-3--3-3-|-5--5-5-|
E--------|-3--3-3-|-----------------|--------------------|--------|-3--3-3-|

E------------------|------------|--------|-3--3-3-|-----------------|
B------------------|------------|-5--5-5-|-3--3-3-|-----------------|
G-----9--------7---|-----5------|-5--5-5-|-4--4-4-|-9--9--9---7-7-7-|
D------------------|----------5-|-5--5-5-|-5--5-5-|-10-10-10--9-9-9-|
A-7-7-7-7--5-5-5-5-|-3-3-3-3--5-|-3--3-3-|-5--5-5-|-----------------|
E------------------|----------3-|--------|-3--3-3-|-----------------|

E--------------------|--------|-1--1-1-|---|-3-|-----|
B--------------------|-5--5-5-|-1--1-1-|---|-3-|-----|
G-10-10-10--9--9--9--|-5--5-5-|-2--2-2-|---|-4-|-----|
D-12-12-12--10-10-10-|-5--5-5-|-3--3-3-|-5-|-5-|-7---|
A--------------------|-3--3-3-|-3--3-3-|-5-|-5-|-7---|
E--------------------|--------|-1--1-1-|-3-|-3-|-5---|

Techno Thing Type Part:
(Phaser or something of that sort)
E-----------------|
B-----------------|
G----------------o|
D----------------o|
A-----------------|
E-5-5-55-5-5-5-3--|

2nd Chorus:
E--------|-3--3-3-|-----------------|--------------------|--------|-3--3-3-|
B-5--5-5-|-3--3-3-|-----------------|--------------------|-5--5-5-|-3--3-3-|
G-5--5-5-|-4--4-4-|-9--9--9---7-7-7-|-10-10-10--9--9--9--|-5--5-5-|-4--4-4-|
D-5--5-5-|-5--5-5-|-10-10-10--9-9-9-|-12-12-12--10-10-10-|-5--5-5-|-5--5-5-|
A-3--3-3-|-5--5-5-|-----------------|--------------------|-3--3-3-|-5--5-5-|
E--------|-3--3-3-|-----------------|--------------------|--------|-3--3-3-|

E------------------|------------------|--------|-3--3-3-|-----------------|
B------------------|------------------|-5--5-5-|-3--3-3-|-----------------|
G-----9--------7---|-----10-------9---|-5--5-5-|-4--4-4-|-9--9--9---7-7-7-|
D------------------|------------------|-5--5-5-|-5--5-5-|-10-10-10--9-9-9-|
A-7-7-7-7--5-5-5-5-|-8-8-8-8--7-7-7-7-|-3--3-3-|-5--5-5-|-----------------|
E------------------|------------------|--------|-3--3-3-|-----------------|

E--------------------|--------|-1--1-1-|---|
B--------------------|-5--5-5-|-1--1-1-|---|
G-10-10-10--9--9--9--|-5--5-5-|-2--2-2-|---|
D-12-12-12--10-10-10-|-5--5-5-|-3--3-3-|-5-|
A--------------------|-3--3-3-|-3--3-3-|-5-|
E--------------------|--------|-1--1-1-|-3-|

Bridge:
E--------------------------------------------------|
B--------------------------------------------------|
G--------------------------------------------------|
D--------------------------------------------------|
A--------------------------------------------------|
E-5~----------7~----------8~----------10~----------|

E----------------------------------------------------------------|
B----------------------------------------------------------------|
G----------------------------------------------------------4H5---|
D-7-----7-----7-----7-----9---10---5-----5-----7-----7-----0---7-|
A-0-0-0-0-0-0-0-0-0-0-0-0-0-0-0--0-0-0-0-0-0-0-0-0-0-0-0-0-------|
E----------------------------------------------------------------|

E------------------------------------------------------------------|
B------------------------------------------------------------------|
G------------------------------------------------------------------|
D-7-----7-----7-----7-----9---10---5-----5-----7-----7----------9~-|
A-0-0-0-0-0-0-0-0-0-0-0-0-0-0-0--0-0-0-0-0-0-0-0-0-0-0-0-0-0-0-----|
E------------------------------------------------------------------|

E----------------------------------------------------------------|
B----------------------------------------------------------------|
G----------------------------------------------------------4H5---|
D-7-----7-----7-----7-----9---10---5-----5-----7-----7-----0---7-|
A-0-0-0-0-0-0-0-0-0-0-0-0-0-0-0--0-0-0-0-0-0-0-0-0-0-0-0-0-------|
E----------------------------------------------------------------|

E----------------------------------------------------------------|
B----------------------------------------------------------------|
G----------------------------------------------------------4H5---|
D-7-----7-----7-----7-----9---10---5-----5-----7-----7-----0---7-|
A-0-0-0-0-0-0-0-0-0-0-0-0-0-0-0--0-0-0-0-0-0-0-0-0-0-0-0-0-------|
E----------------------------------------------------------------|

E------------------------------------------------------------------|
B------------------------------------------------------------------|
G------------------------------------------------------------------|
D-7-----7-----7-----7-----9---10---5-----5-----7-----7----------9~-|
A-0-0-0-0-0-0-0-0-0-0-0-0-0-0-0--0-0-0-0-0-0-0-0-0-0-0-0-0-0-0-----|
E------------------------------------------------------------------|

E--------------------------------------12-12-12-12-12-|
B--------------------------------------13-13-13-13-13-|
G--------------------------------------14-14-14-14-14-|
D-7-7-7-7-7-7-7-7-9-9-9-9-10~--14--14-----------------|
A-0-0-0-0-0-0-0-0-0-0-0-0-0---------------------------|
E------------------------------12--12-----------------|

End Thing:
E-------------------------------------------------------3--3-3--|
B-------------------------------------------------5--5--3--3-3--|
G---------------5-5--7-7--4-4--5-5----------------5--5--4--4-4--|
D-3--3--3-3--3----------------------3--3--3-3--3--5--5--5--5-5--|
A-3--3--3-3--3--3-3--5-5--2-2--3-3--3--3--3-3--3--3--3--5--5-5--|
E-1--1--1-1--1----------------------1--1--1-1--1--------3--3-3--|

E-------------------------------------------0--------------------|
B---------------------------------------0------------------------|
G---------------9-9--10-7-7--9-9-----0--------------0------------|
D-3--3--3-3--3--------------------3------------------------------|
A-3--3--3-3--3--7-7--8--5-5--7-7--3-------------3----------------|
E-1--1--1-1--1--------------------1---------------------3----\1--|

Cello Part:
  >        >        >        >        >        >        >        >
E-------------------------------------------------------------------------|
B-------------------------------------------------------------------------|
G-------------------------------------------------------------------------|
D-------------------------------------3--------2--------3--------2--------|
A-------------------0--------3--------------------------0--------3--------|
E-1--------3--------------------------1--------3--------------------------|

  >        >        >        >        >        >        >        >
E-------------------------------------------------------------------------|
B-------------------------------------------------------------------------|
G-------------------------------------------------------------------------|
D-3----2---2----0---3----2---2--------3----2---2----0---3----2---2----0---|
A--------3----------0--------3---------------3--------3-0--------3--------|
E-1--------3--------------------------1--------3--------------------------|

  >        >        >         >
E------------------------------------|
B------------------------------------|
G-----------------------------0------|
D-3----2---2----0---3----2-0---------|
A--------3--------3-0---------3------|
E-1--------3-------------------------|
Suggest correction
comments
print report bad tab
11 comments total. Showing first comments.
0 reply
pill2comawhite 240 Jan 13, 2004 12:00 AM

overall great tab, seems verse is off a little though

0 reply
nephelim, the 80 Aug 21, 2004 12:00 AM

whats the > Stand for on the 'cello' part?

0 reply
lp_soldier200 10 Jan 23, 2005 12:00 AM

i think it means you bend the strings.

guest
You may want to rate the tab now too:
select rating
Wanna post a correction for this tab? Suggest correction