Oops, an error
Loading. Please wait.

Death Of Seasons Bass Tab

version 2
version 2

Intro

Whole song

Interactive

by AFI
1,019 views 1 this week
no commentswrite comment
1 2 3 4 5
please rate
add to favorites
launch autoscroll
font size
0
reset
guitar tuner
Tab Pro tools
  • play this tab
  • loop segment
  • change instrument
  • show fretboard
  • metronome
Autoscroll
slow
fast
+/-
esc
set tempo
stop
Difficulty
intermediate
Band: AFI
Bassist: Hunter
Album: Sing The Sorrow
Song: Death of Seasons (Track 7)

This is how I play the song, I find it easier to just use the E and A strings for the intro. Enjoy


G----------------------------------------|
D----------------------------------------|
A----5-7--9-7-9-7--5-7---4-5-7-5-7-5-4-5-|
E-0-0---0----0--------0-0---0---0--------|

G--------------------------------------------------------------------------|
D--------------------------------------------------------------------------|
A---------------------------------------------55555------------------------| 2x
E-55555-55555-55555--11111--33333-33333-33333------------------------------|

G--------------------------------------------------------------------------|
D--------------------------------------------------------------------------|
A--------------------10-10-10-10-10-10-10-10-10-10-------------------------| 1x
E-5-5-5--33333-33333-------------------------------------------------------|

G----------------------------------------------------------------------------|
D-------------------------------------------------------14-12-10--12-10-9----|
A-33333-33333-------------12-12-12-12-12-10-10-10-10-10---------12-------10--| 1x
E-------------33333-33333----------------------------------------------------|

G--------------------------------------------------------------------------|
D--------------------------------------------------------------------------|
A-33333-33333-------------77777--55555--33333------------------------------| 1x
E-------------33333-33333---------------------55555------------------------|

G----------------------------99999-99999-9-7---5-4-------------------------|
D------------2-2-----------------------------------5-----------------------|
A-33333-333-----------33333------------------3-----------------------------| 1x
E----------------33333-----------------------------------------------------|

G--------------------------------------------------------------------------|
D--------------------------------------------------------------------------|
A-33333-33333-------------------------10-10-10-10-10-10--10 RING-----------| 1x
E-------------11111-11111--3 RING------------------------------------------|

The techno part {BREAK}

G--------------------------------------------------------------------------|
D--------------------------------------------------------------------------|
A---------------------------------------------55555------------------------| 2x
E-55555-55555-55555--11111--33333-33333-33333----------(5)-----------------|

G--------------------------------------------------------------------------|
D--------------------------------------------------------------------------|
A--------------------10-10-10-10-10-10-10-10-10-10-------------------------| 1x
E-5-5-5--33333-33333-------------------------------------------------------|

G----------------------------------------------------------------------------|
D-------------------------------------------------------14-12-10--12-10-9----|
A-33333-33333-------------12-12-12-12-12-10-10-10-10-10---------12-------10--| 1x
E-------------33333-33333----------------------------------------------------|

G--------------------------------------------------------------------------|
D--------------------------------------------------------------------------|
A-33333-33333-------------77777--55555--33333------------------------------| 1x
E-------------33333-33333---------------------55555------------------------|

G----------------------------99999-99999-9-7---5-4-------------------------|
D------------2-2-----------------------------------5-----------------------|
A-33333-333-----------33333------------------3-----------------------------| 1x
E----------------33333-----------------------------------------------------|

G--------------------------------------------------------------------------|
D--------------------------------------------------------------------------|
A-33333-33333--------------------------------------------------------------| 1x
E-------------11111-11111--3 RING------------------------------------------|

G---|------------------------|-------------------|--------------------------|
D---|------------------------|-------7-7--5-5----|--------------------9--10-|
A-0-|-------0000000000000000-|----------------7-7|-------12RING-------------| end
E---|--1--1------------------|--1--1-------------|-1--1---------------------|
comments
We did not receive enough feedback on this tab! Please rate:
print report bad tab
1 2 3 4 5
I want to post or [tab]
guest
You may want to rate the tab now too:
select rating
Please do not post tabs as comments. Select "correction" instead!