Oops, an error
Loading. Please wait.

End Transmission Tab

version 1
version 1

Whole song

Interactive

by AFI
4,895 views 18 this week
1 commentread comment
1 2 3 4 5
excellent!
x 5
add to favorites
launch autoscroll
font size
0
reset
how to read this tab
guitar tuner
Autoscroll
slow
fast
+/-
esc
set tempo
stop
Help us to improve Ultimate-Guitar.com Take our survey!
×
Contributor
AlienFreak77 2,474
End Transmission
BY A FIRE INSIDE


INTRO
    =       =       =       =      =       =
||--9-==----9-==----9-==----9-==---9-==----9-==---9------9------9-------|
||==--10-==---10-==---10-==---10-==--10-==---10-==--10-----10-----10----|
||11-----11------11------11------11-----11------11-----11-----11-----11-|
||----------------------------------------------------------------------|
||----------------------------------------------------------------------|
||----------------------------------------------------------------------|


INTRO
12----------||
----10------||
--------11--||
------------||
------------||
------------||


INTRO SOLO
||-----9-------12-----------------------------------------------------|
||-------10-------10--------10-------12^14-14--------10------10-------|
||--11------11-------11--------11-------------11--------9-------9-----|
||-----------------------12-------12--------------11------11-------11-|
||--------------------------------------------------------------------|
||--------------------------------------------------------------------|


INTRO SOLO
--------------------|
---9------10^9-9----|
-----9-----------9--|
-9-----9----------9-|
--------------------|
--------------------|


INTRO SOLO
----9-------12-----------------------------------------------------|
------10-------10--------10-------12^14-14--------10------10-------|
-11------11-------11--------11-------------11--------9-------9-----|
----------------------12-------12--------------11------11-------11-|
-------------------------------------------------------------------|
-------------------------------------------------------------------|


INTRO SOLO
------------------------|| --14--|
-----14-------14--------|| --14--|
--------13-------13-----|| --11--|
-/14-------14-------14--|| ------|
------------------------|| ------|
------------------------|| ------|


VERSE, ONLY BASS AND DRUMS
---------------------------------|
---------------------------------|
--LONG-REST-DURING---------------|
---VERSE-------------------------|
---------------------------------|
---------------------------------|

VERSE: “you pressed you mouth on mine…”
-------------------------------7----|
----------------------5------5------|
------------------------------------|
--4----------/7---------------------|
------------------------------------|
------------------------------------|


INTRO SOLO
||----9-------12-----------------------------------------------------|
||------10-------10--------10-------12^14-14--------10------10-------|
||-11------11-------11--------11-------------11--------9-------9-----|
||----------------------12-------12--------------11------11-------11-|
||-------------------------------------------------------------------|
||-------------------------------------------------------------------|

INTRO SOLO
------------------------|| --14---|
-----14-------14--------|| --14---|
--------13-------13-----|| --11---|
-/14-------14-------14--|| -------|
------------------------|| -------|
------------------------|| -------|


VERSE:
------------------------------------------------------------7-|
------------------------0-----------------------5-------5-----|
--------------------------------------------------------------|
--4/77------7\2------2--------2-4------4/7----7---------------|
--------------------------------------------------------------|
--------------------------------------------------------------|


CHORUS GUITAR ONE
-----------------------------------------------------------------|
-------------7777777777-999999999-11-11-11-11-11-99999-----------|
--777777777--6666666666-999999999-11-11-11-11-11-99999-777777777-|
--777777777--4444444444-999999999-11-11-11-11-11-99999-777777777-|
--555555555--4444444444-777777777--9--9--9--9--9-77777-555555555-|
--555555555-------------777777777--------9---------7---555555555-|


CHORUS GUITAR ONE
------------------------------------|
------------------------------------|
------------666666666-9999999999----|
-777777777--666666666-9999999999--4-|
-777777777--444444444-7777777777--4-|
-555555555------------------------2-|


CHORUS GUITAR TWO, LEAD OVER CHORUS
--9-------9-----------------------------------7---9-------------|
--7---------10-99-10-10-10-12-10----9--10----12--10-------------|
--7----11-----11--11-11-11--X--X----X---X------------9-13-14-16-|
----------------------------9--X----X---7------------X--X--X--X-|
-------------------------------9---11----------------7-11-12-14-|
----------------------------------------------------------------|



CHORUS GUITAR TWO, LEAD OVER CHORUS
-------------------------------------------------|
-----------------------------GRADUAL-BEND--------|
16-16-16-16-16-16-16-16-16-16^16^16^16^16^16^^^--|
-X--X--X--X--X--X--X--X--X---^--^--^--^--^--^^^--|
14-14-14-14-14-14-14-14-14-14^14^14^14^14^14^^^--|
-------------------------------------------------|


INTRO SOLO
||----9-------12-----------------------------------------------------|
||------10-------10--------10-------12^14-14--------10------10-------|
||-11------11-------11--------11-------------11--------9-------9-----|
||----------------------12-------12--------------11------11-------11-|
||-------------------------------------------------------------------|
||-------------------------------------------------------------------|


INTRO SOLO
------------------------|| --14--|
-----14-------14--------|| --14--|
--------13-------13-----|| --11--|
-/14-------14-------14--|| ------|
------------------------|| ------|
------------------------|| ------|


VERSE, ONLY BASS AND DRUMS
---------------------------------|
---------------------------------|
--LONG-REST-DURING---------------|
---VERSE-------------------------|
---------------------------------|
---------------------------------|


VERSE: “you pressed you mouth on mine…”
--9----------------------------------|
--7----------------------------------|
-------------------------------------|
-------------------------------------|
-------------------------------------|
-------------------------------------|

REPEAT SEVERAL TIMES VERY FAST
||----------------------------------|| ------|
||::--9-10-7--9-10-7--9-10-7------::|| --10--|
||----------------------------------|| ------|
||----------------------------------|| ------|
||::------------------------------::|| ------|
||----------------------------------|| ------|


CHORUS GUITAR ONE
-----------------------------------------------------------------|
-------------7777777777-999999999-11-11-11-11-11-99999-----------|
--777777777--6666666666-999999999-11-11-11-11-11-99999-777777777-|
--777777777--4444444444-999999999-11-11-11-11-11-99999-777777777-|
--555555555--4444444444-777777777--9--9--9--9--9-77777-555555555-|
--555555555-------------777777777--------9---------7---555555555-|


CHORUS GUITAR ONE
------------------------------------|
------------------------------------|
------------666666666-9999999999----|
-777777777--666666666-9999999999--4-|
-777777777--444444444-7777777777--4-|
-555555555------------------------2-|



CHORUS GUITAR TWO, LEAD OVER CHORUS
--9-------9-----------------------------------7---9-------------|
--7---------10-99-10-10-10-12-10----9--10----12--10-------------|
--7----11-----11--11-11-11--X--X----X---X------------9-13-14-16-|
----------------------------9--X----X---7------------X--X--X--X-|
-------------------------------9---11----------------7-11-12-14-|
----------------------------------------------------------------|


CHORUS GUITAR TWO, LEAD OVER CHORUS
-------------------------------------------------|
-----------------------------GRADUAL-BEND--------|
16-16-16-16-16-16-16-16-16-16^16^16^16^16^16^^^--|
-X--X--X--X--X--X--X--X--X---^--^--^--^--^--^^^--|
14-14-14-14-14-14-14-14-14-14^14^14^14^14^14^^^--|
-------------------------------------------------|



BRIDGE: “everything was burning bright…”
--14--------12------9-----14-------------14----16----12---9---14-|
--14------------------------------10-----------------------------|
-----------------------------------------------------------------|
-----------------------------------------------------------------|
-----------------------------------------------------------------|
-----------------------------------------------------------------|


---------------------------------------|
---------------------------------------|
--11-11/13-13/14-14-14-14-14-14-14-14--|
---x--x--x--x--x--x--x--x--x--x--x--x--|
---9--9/11-11/12-12-12-12-12-12-12-12--|
---------------------------------------|




CHORUS GUITAR ONE
-----------------------------------------------------------------|
-------------7777777777-999999999-11-11-11-11-11-99999-----------|
--777777777--6666666666-999999999-11-11-11-11-11-99999-777777777-|
--777777777--4444444444-999999999-11-11-11-11-11-99999-777777777-|
--555555555--4444444444-777777777--9--9--9--9--9-77777-555555555-|
--555555555-------------777777777--------9---------7---555555555-|


CHORUS GUITAR ONE
------------------------------------|
------------------------------------|
------------666666666-9999999999----|
-777777777--666666666-9999999999--4-|
-777777777--444444444-7777777777--4-|
-555555555------------------------2-|


CHORUS, GUITAR ONE
-----------------------------------------------------------------|
-------------7777777777-999999999-11-11-11-11-11-99999-----------|
--777777777--6666666666-999999999-11-11-11-11-11-99999-777777777-|
--777777777--4444444444-999999999-11-11-11-11-11-99999-777777777-|
--555555555--4444444444-777777777--9--9--9--9--9-77777-555555555-|
--555555555-------------777777777--------9---------7---555555555-|


CHORUS, GUITAR ONE
----------------------------------------------|
----------------------------------------------|
------------666666666-9999999999--------------|
-777777777--666666666-9999999999--4-----------|
-777777777--444444444-7777777777--------------|
-555555555------------------------------------|



CHORUS, GUITAR TWO, LEAD OVER CHORUS
--9-------9----------------------------------------------------|
--7---------10-99-10-10-10-12-10----9--10----------5-----------|
--7----11---11-11-11-11-11--X--X----X---X--4^6-6-x---66-6------|
----------------------------9--X----X---7----------------------|
-------------------------------9---11--------------------------|
---------------------------------------------------------------|


CHORUS, GUITAR TWO, LEAD OVER CHORUS
--------------------------------------------------------|
--------------------------------------------------------|
-----------9999-11-11-11-11-13-13-13-13-14-14-14-14-----|
---6-7--9--xxxx--x--x--x--x--x--x--x--x--x--x--x--x-----|
-7---------7777--9--9--9--9-11-11-11-11-12-12-12-12-----|
--------------------------------------------------------|



CHORUS, GUITAR TWO, LEAD OVER CHORUS
----9-------12------------9----------------9-----------------|
------10-------10-----------10----9^^10-10---10--------------|
-11------11-------11---11------11---------------11--99999999-|
----------------------------------------------------99999999-|
----------------------------------------------------77777777-|
-------------------------------------------------------------|


CHORUS, GUITAR TWO, LEAD OVER CHORUS
--9--9--9--9--9-777777-|
-10-10-10-10-10-999999-|
-11-11-11-11-11-999999-|
-----------------------|
-----------------------|
-----------------------|


CHORUS, GUITAR TWO, LEAD OVER CHORUS
----9-------12------------9----------------9-----------------------|
------10-------10-----------10----9^^10-10---10-----------------12-|
-11------11-------11---11------11---------------11--999999-------x-|
----------------------------------------------------999999---6-7-9-|
----------------------------------------------------777777-7-------|
-------------------------------------------------------------------|


CHORUS, GUITAR TWO, LEAD OVER CHORUS
--------------bend-----------------------|
11-11-11-11-11^11-11---10----------------|
-x--x--x--x--x--x--x----x----------------|
-9--9--9--9--9^^9--9----7----------------|
-----------------------------------------|
-----------------------------------------|
comments
print report bad tab
1 comment total.
0 reply
SGTCloudrunner 41 wrote on June 19 2011, 02:09 am

Awesome. Sounds right to me. Thank you so much.

I want to post or [tab]
guest
You may want to rate the tab now too:
select rating
Please do not post tabs as comments. Select "correction" instead!