Oops, an error
Loading. Please wait.

Endlessly She Said Tab

version 1
version 1

Whole song

Interactive

by AFI
31,131 views 21 this week
24 commentsread comments
1 2 3 4 5
x 17
add to favorites
launch autoscroll
font size
0
reset
how to read this tab
guitar tuner
Autoscroll
slow
fast
+/-
esc
set tempo
stop
Help us to improve Ultimate-Guitar.com Take our survey!
×
Author
Difficulty
Tuning
intermediate
E A D G B E
Tabbed by: Rockford_rocks
Tuning: Half step flat (Eb, Ab, Db, Gb, Bb, Eb)


Intro
|------------------------------------------------------|
|----7-----5-------7-----7----5------------------------|
|-----7---6-6--6h7---7----7-----7--6-------------------|
|--9---9---------------9----7----7----4h5-4-4--4h5-4-4-| x2
|-------------------------------------2---2-2--2---2-2-|
|------------------------------------------------------|


Verse 1 (listen for timing)

|-----------------------------------------|
|-----7-----------------------------------|
|------7----------7--6--------------------|
|---9----9------7--7-----4h5-4-4-4h5--4-4-|
|------------------------2---2-2-2----2-2-|
|-----------------------------------------|

Put on distortion 

|--------------------------------------------------------------|
|-----------------------------------7775-5-5-------------------|
|---------7776-6-6-----9997-7-7--------------------------------|
|--------------------------------------------4h5--4-4-4h5--4-4-|
|---7-7/9----------7/9----------7/5----------2----2-2-2----2-2-|
|---5-5/7----------5/7----------5/7----------------------------|

Chorus

|--------------------------|
|--------------------------|
|--------------------------|
|--------7-----------------| x2
|-9------5-x12--7------7-5-|
|-7-x12---------5-x11--5-3-|


Verse 2

|-------------<7>---------<12>------------------|
|----------<7>---------<7>----------------------|
|------<7>----------<7>-------------------------|
|-------------------------------4h5-4-4-4h5-4-4-|
|--9----------------------------2---2-2-2---2-2-|
|--7--------------------------------------------| (repeat verse and chorus)

|----------10--------------------|
|--7h8-------8-------------------|
|------9-9----9------------------|
|----------------4-4-4-4-4-4-4-4-| x3
|----------------2-2-2-2-2-2-2-2-|
|--------------------------------|
                 * * * * 

Solo

|---------10--------------------------|
|--7h8------8-------------------------|
|------9-9---9--------6-6-6-----6h7-7-|
|---------------------------7-7-------|
|-------------------------------------|
|---------------7-7-7-----------------|

|----------10--------------------------------|
|--7h8-------8-------------------------------|
|------9-9----9--------------------<7><7><5>-|
|----------------------------<7><7>----------|
|---------------------7h9-9------------------|
|---------------5h7-7------------------------|

|----------------<12>-------------------------|
|--7h8--------<7>---------3-3-----------------|
|------9-9-<5>---------------------------2-4~-|
|---------------------4-4-------4h5p4---------|
|---------------------2-2-----4-------5~------|
|-----------------------------2-------3~------|

Interlude (turn distortion off)

|----------------------------------------------|
|---3----3----------------------------------2~-|
|--------0-----------------------2----4-----2~-|
|----4-----4---2h4-4-4-4h5-4-2-2--2-2---2-2-2~-|
|-2----2----2------5-5-5---5-------------------|
|----------------------------------------------|


Outro (while Davey is screaming)

|-----------------------------------------------|
|-----------------------------------------------|
|-----------------------------------------------|
|-----------------------------------------------|
|--9h10-9-9-----7h9-7-7-----5h7-5-5-----7h9-7-7-|
|--7----7-7-x2--5---5-5-x2--3---3-3-x2--5---5-5-|


|--------------------------------------------------|
|--------------------------------------------------|
|-----3-3----6-6-----------------------------------|
|--4-4----4-4--------------------------------------|
|--------------------------------------------------|
|-----------------7--7/9/10--5--2--7--7/9/10--5--2-|


Whew! There, that's it, just listen to the song and you'll get it. Enjoy!

Key:
*= palm mute
h= hammer on
p= pulloff
<>= pitch harmonic
x_= play _ times

Suggest correction
comments
print report bad tab
24 comments total. Showing first comments.
-1 reply
DownbëloW 102 Jun 26, 2006 05:06 PM

What's up with your hammers? You have them all backwards. Like you have 5h7, when it should be 7p5. Other than that, this rocks. Kick ass.

0 reply
nolifemusician 30 Jun 26, 2006 08:58 PM

yea i agree completly
great tab dude!

0 reply
Rockford_rocks 274 Jun 26, 2006 10:30 PM

Hmm... thanks for the advice, i'm new at this...

guest
You may want to rate the tab now too:
select rating
Wanna post a correction for this tab? Suggest correction