Oops, an error
Loading. Please wait.

Endlessly She Said tab

version 3
version 3

Whole song

Interactive

by AFI
9,614 views 6 this week
9 commentsread comments
1 2 3 4 5
x 8
add to favorites
×
Save as Personal and add changes to this tab that will be seen only by you. Learn more ›
×
You can save this tab as Personal to edit and correct it or add notes. All changes will be seen only by you. Learn more »
launch autoscroll
font size
0
reset
how to read this tab
guitar tuner
edit
Autoscroll
slow
fast
+/-
esc
set tempo
stop
Author
Difficulty
Alright well.. the first tab that was posted for this amazing song was good and guided 
to learnking the song perfectly.. but i noticed that there were quite a few 
so i decided to tab this song 100 percent correct.. enjoy!

A.F.I.
decemberunderground
Endlessly She Said
Half-Step down (Eb Ab Db Gb Bb eb)

KEY:
h = hammer-on
s = slide
<>= harmonic
. = palm-mute
~ = let ring

INTRO
|--2-------------2-3-2---0----------------------|
|-----3---5-----------3-----3-2-----------------|
|-4----4-6-6-6h7--4-----2----2------------------|
|--------------------------------4h5-4-4-4h5-4-4| x2
|--------------------------------2---2-2-2---2-2|
|-----------------------------------------------|

VERSE 1
|-2----------------------------|
|-3------3---2-----------------|
|-4----2---2-------------------|
|---------------4h5-4-4-4h5-4-4|
|---------------2---2-2-2---2-2|
|------------------------------|

|--2-------------2-3-2---0---------------------------------------------|
|-----3---5-----------3-----3-2----------------------------------------|
|-4----4-6-6-6h7--4-----2----2-----------------------------------------|
|------------------------------(Kick on the distortion)-4h5-4-4-4h5-4-4|
|-------------------------------------------------------2---2-2-2---2-2|
|----------------------------------------------------------------------|

PRE-CHOURUS
|--------------------------------------------------------------|
|-----3-3-2-2-2------5-5-3-3-3------3-3-2-2-2------------------|
|--------------------------------------------------------------|
|-7s9------------7s9------------7s9----------------------------|
|-7s9------------7s9------------7s9-----------9h10-9-9-9h10-9-9|
|-5s7------------5s7------------5s7-----------7----7-7-7----7-7|

|-----------------------------------------------------------------------|
|-----3-3-2-2-2------5-5-3-3-3------7-7-5-5-5---------------------------|
|-----------------------------------------------------------------------|
|-7s9------------7s9------------7s9-------------------------------------|
|-7s9------------7s9------------7s9-----------9h10-9-9-9h10-9-9-9h10-9-9|
|-5s7------------5s7------------5s7-----------7----7-7-7----7-7-7----7-7|

CHOURUS

(GUITAR 1)
|-----------------------------------|
|-----------------------------------|
|-------------11------9------4s6----|
|-7--5--9------x(x12)-x(x12)-x-x(x8)|
|-7--5--9(x12)-9------7------2s4----|
|-5--3--7---------------------------|

|-----------------------------------------|
|-----------------------------------------|
|-------------11-----12------9-----4s6----|
|-7--5--9------x(x6)--x(x6)-x(x12)-x-x(x8)|
|-7--5--9(x12)-9-----10------7-----2s4----|
|-5--3--7---------------------------------|

(GUITAR 2)
|----------------------------------------------------|
|----------------------------------------------------|
|---------7----------------------------7-------------|
|-9-------7(x12)--7------7--5--9-------7(x12)--7-----|
|-9(x12)--5-------7(x24)-7--5--9(x12)--5-------7(x12)|
|-7---------------5------5--3--7---------------5-----|

POST-COURUS
(BOTH GUITARS)
|-------------------------------|
|-------------------------------|
|-------------------------------|
|-7--5--9-----------------------|
|-7--5--9(x18 with delay affect)|
|-5--3--7-----------------------|

VERSE 2
|-------<7>----------<12>|
|----<7>-------<7>-------|
|-<7>-------------<7>----|
|------------------------|
|------------------------|
|------------------------|

PRE-CHOURUS
|----------|
|----------|
|----------|
|----------|
|-9h10-9--9|
|-7----7--7|

|--------------------------------------------------------------|
|-----3-3-2-2-2------5-5-3-3-3------3-3-2-2-2------------------|
|--------------------------------------------------------------|
|-7s9------------7s9------------7s9----------------------------|
|-7s9------------7s9------------7s9-----------9h10-9-9-9h10-9-9|
|-5s7------------5s7------------5s7-----------7----7-7-7----7-7|

|--------------------------------------------------------------|
|-----3-3-2-2-2------5-5-3-3-3------7-7-5-5-5------------------|
|--------------------------------------------------------------|
|-7s9------------7s9------------7s9----------------------------|
|-7s9------------7s9------------7s9-----------9h10-9-9-9h10-9-9|
|-5s7------------5s7------------5s7-----------7----7-7-7----7-7|

CHOURUS
(GUITAR 1)
|-----------------------------------|
|-----------------------------------|
|-------------11------9------4s6----|
|-7--5--9------x(x12)-x(x12)-x-x(x8)|
|-7--5--9(x12)-9------7------2s4----|
|-5--3--7---------------------------|

|-----------------------------------------|
|-----------------------------------------|
|-------------11-----12------9-----4s6----|
|-7--5--9------x(x6)--x(x6)-x(x12)-x-x(x8)|
|-7--5--9(x12)-9-----10------7-----2s4----|
|-5--3--7---------------------------------|

(GUITAR 2)
|----------------------------------------------------|
|----------------------------------------------------|
|---------7----------------------------7-------------|
|-9-------7(x12)--7------7--5--9-------7(x12)--7-----|
|-9(x12)--5-------7(x24)-7--5--9(x12)--5-------7(x12)|
|-7---------------5------5--3--7---------------5-----|

POST-COURUS
(BOTH GUITARS)
|-------------|
|-------------|
|-------------|
|-7--5--9-----|
|-7--5--9(x18)|
|-5--3--7-----|

BRIDGE
|----------10-------------------|
|--7h8-------8------------------|
|------9-9----9-----------------|
|-------------------------------|
|----------------9-9-9-9-9-9-9-9|
|----------------7-7-7-7-7-7-7-7|
                 . . . .

|----------10-------------------|
|--7h8-------8------------------|
|------9-9----9-----------------|
|-------------------------------|
|----------------9-9-9-9-9-9-9-9|
|----------------7-7-7-7-7-7-7-7|
                 . . . .

|----------10------------------------------|
|--7h8-------8-----------------------------|
|------9-9----9----------------------------|
|--------------------------------5~-s7-----|
|----------------9-9-9-9-9-9-9-9-5~-s7(x10)|
|----------------7-7-7-7-7-7-7-7-3~-s5-----|
                 . . . .

|---------10--------------------------|
|--7h8------8-------------------------|
|------9-9---9--------6-6-6-----6h7-7-|
|---------------------------7-7-------|
|-------------------------------------|
|---------------7-7-7-----------------|

|----------10--------------------------------|
|--7h8-------8-------------------------------|
|------9-9----9--------------------<7><7><5>-|
|----------------------------<7><7>----------|
|---------------------7h9-9------------------|
|---------------5h7-7------------------------|

|----------------<12>-----------------------------|
|--7h8--------<7>---------3-3---------------------|
|------9-9-<5>--------4-4------7--11s12s11--------|
|---------------------4-4------7---x--x--x--5~-7-9|
|---------------------2-2------5---9s10s-9--5~-x-x|
|-------------------------------------------3~-5-7|

|---------------------------------------------------------------|
|---------------------------------------------------------------|
|---------------------------------------------------------------|
|-4-4--4-4--4h5-4--4-4--4-4--4h5-4--4-4--4-4--4h5-4--4-4--4-4--4|
|-2-2--2-2--2---2--2-2--2-2--2---2--2-2--2-2--2---2--2-2--2-2--2|
|---------------------------------------------------------------|
  . .  . .      .  . .  . .      .  . .  . .      .

|--------------------------------------------------------|
|---3----3----------------------------------2------------|
|--------0-----------------------2----4-----2(with delay)|
|----4-----4---2h4-4-4-4h5-4-2-2--2-2---2-2-2------------|
|-2----2----2------5-5-5---5-----------------------------|
|--------------------------------------------------------|

LAST CHOURUS
(GUITAR 1)
|-----------------------------|
|-----------------------------|
|-------11------9------4s6----|
|-9------x(x12)-x(x12)-x-x(x8)|
|-9(x12)-9------7------2s4----|
|-7---------------------------|

|-----------------------------------------|
|-----------------------------------------|
|-------------11-----12------9-----4s6----|
|-7--5--9------x(x6)--x(x6)-x(x12)-x-x(x8)|
|-7--5--9(x12)-9-----10------7-----2s4----|
|-5--3--7---------------------------------|

|-----------------------------------------|
|-----------------------------------------|
|-------------11-----14-----9------2s6----|
|-7--5--9------x(x6)--x(x6)-x(x12)-x-x(x8)|
|-7--5--9(x12)-9-----12-----7------4s4----|
|-5--3--7---------------------------------|

(GUITAR 2)
|----------------------------------------------------|
|----------------------------------------------------|
|---------7----------------------------7-------------|
|-9-------7(x12)--7------7--5--9-------7(x12)--7-----|
|-9(x12)--5-------7(x24)-7--5--9(x12)--5-------7(x12)|
|-7---------------5------5--3--7---------------5-----|

BOTH GUITARS
|-----|
|-----|
|-----|
|-7--5|
|-7--5|
|-5--3|

OUTRO
|------------------------------|
|------------------------------|
|-4~-4s6-6s7~-7s9-6------11----|
|-x--x-x-x-x--x-x-x(x12)--x(x8)|
|-2~-2s4-4s5~-5s7-4-------9----|
|------------------------------|

|-----------------------------------------------|
|-----------------------------------------------|
|-----------------------------------------------|
|-----------------------------------------------|
|--9h10-9-9-----7h9-7-7-----5h7-5-5-----7h9-7-7-|
|--7----7-7-x2--5---5-5-x2--3---3-3-x2--5---5-5-|

|----------------------------------------------------------|
|----------------------------------------------------------|
|----------------------------------------------------------|
|---------------------------------------------3-3-------6-6|
|--9h10-9-9-----7h9-7-7-----5h7-5-5----4-4-4-4---4-4-4-4---|
|--7----7-7-x2--5---5-5-x2--3---3-3-x2---------------------|

i cant really figure out the part where davey is whispering in the very end cause its 
low.. i hope someone can figure that out some time soon.. but everything else is 
perfect.. if you have ANY questions at all.. just IM me at njalldway@aim.com

            
            
Suggest correction
Creating personal tab
Creating personal tab
You can edit any tab online and save it as your Personal.

You can edit, replace or remove any tab part or add personal notes – all changes will be seen only by you.

Personal tabs can be accessed anytime from any device, even offline.
Learn more »
comments
print report bad tab
9 comments total. Showing first comments.
0 reply
myth302 10 Jul 15, 2006 05:05 PM

yeah i thought there were octaves in the chorus, nice going

0 reply
myth302 10 Jul 15, 2006 05:08 PM

better than the other as well, forgot to add

0 reply
TearsFall 20 Aug 07, 2006 10:51 PM

****ing great song

guest
You may want to rate the tab now too:
select rating
Wanna post a correction for this tab? Suggest correction