Oops, an error
Loading. Please wait.

Fainting Spells bass

version 1
version 1

Whole song

Interactive

by AFI
1,074 views 1 this week
no commentswrite comment
1 2 3 4 5
3 more votes to show rating
add to favorites
×
Save as Personal and add changes to this tab that will be seen only by you. Learn more ›
×
You can save this tab as Personal to edit and correct it or add notes. All changes will be seen only by you. Learn more »
launch autoscroll
font size
0
reset
guitar tuner
edit
Autoscroll
slow
fast
+/-
esc
set tempo
stop
Author
AFI
Fainting Spells
Tabbed by Jess/Abongachong

Tune to Eb Ab Db Gb

This song is a b-side from the Decemberunderground sessions but will be released on 
editions of the album Crash Love.

Some part of the tab are kind of confusing, I did a cover of the song so feel free to 
it out to see how to play it. http://www.youtube.com/watch?v=KJpaTAohhGM

Also I'm quite sure that the first part of the bridge is wrong, if anyone can help me 
with corrections there it'd be muchos appreciated :)

In the recording, there's no bass til 0:58 but sitting around waiting to come in is 
boring so I made up a basic verse riff. Just go watch the video mentioned above to check out 
it should sound.

h - hammer on
/ - slide
> - strum
. - staccato

Verse
Gb|----------------------------------------|
Db|----------------------------------------|
Ab|----------------------------------------| x2
Eb|-0-02-21-1333--0-02-21-13332------------|

Pre-Chorus
Gb|----------------------------------------|
Db|----------------------------------------|
Ab|-0-0-00-0023-3-3333-32------------------|
Eb|-----------------------33333-1111-------|

Verse 2
Gb|----------------------------------------|
Db|----------------------------------------|
Ab|----------------------------------------|
Eb|-0-02-21-1333--0-02-21-13332------------|

Gb|----------------------------------------|
Db|----------------------------------------|
Ab|-----------------------------7777777----| x2
Eb|-0000-2222-11111-333-0000000------------|

Pre-chorus                        ^^^--------|  
Gb|----------------------------------------|These 8s are
Db|----------------------------------------|where the real
Ab|-0-0-00-0023-3-3333-32--------/888------|bassline starts
Eb|-----------------------33333------------|

Chorus          x3     Fourth time
Gb|------------------|----------------------|
Db|------------------|-----------------5----|
Ab|-5h77\--3333------|-5h77\---3>-3333---35-|
Eb|-------0----3-035-|--------0-------------|

Rest for guitar break

Verse 3
Gb|----------------------------------------|
Db|----------------------------------------|
Ab|----------------------------------------|
Eb|-0-02-21-1333--0-02-21-13332------------|

Gb|----------------------------------------|
Db|----------------------------------------|
Ab|-----------------------------7777777----| x2
Eb|-0000-2222-11111-333-0000000------------|

Pre-chorus
Gb|----------------------------------------|
Db|----------------------------------------|
Ab|-0-0-00-0023-3-3333-32--------/888------|
Eb|-----------------------33333------------|

Chorus          x3     Fourth time
Gb|------------------|----------------------|
Db|------------------|-----------------5----|
Ab|-5h77\--3333------|-5h77\---3>-3333---35-|
Eb|-------0----3-035-|--------0-------------|

Bridge part 1
Gb|-----------|
Db|-----------|
Ab|-----------| x about a million
Eb|-0323-1323-|

Bridge part 2
Gb|-------|
Db|-------|
Ab|-------| also x about a million
Eb|--12\--|(but I think it's really x8)

then play the chorus all the way through once, then:

Last chorus
Gb|------------------|
Db|------------------|
Ab|-5h77\--3333------| x3
Eb|-------0----3-035-|

Fourth time
Gb|-------------------------|-------------------------------|
Db|-------------------------|---------------12--12------12--|
Ab|-5h77\--3-3-333--3-3-333-|-5-5-5h7-/17-12--12---12-12----|
Eb|-------------------------|-------------------------------|

                                       End on
Gb|------------------------------------|-----|
Db|----5h7--7-5---7-5------------------|-----|
Ab|-------------7-----7--33333---------|-----|
Eb|-555----5-------------------1111/12-|-000-|
                                         ...

            
            
Suggest correction
Creating personal tab
Creating personal tab
You can edit any tab online and save it as your Personal.

You can edit, replace or remove any tab part or add personal notes – all changes will be seen only by you.

Personal tabs can be accessed anytime from any device, even offline.
Learn more »
Give kudos to tab author, rate the tab!
1 2 3 4 5
comments
print report bad tab
guest
You may want to rate the tab now too:
select rating
Wanna post a correction for this tab? Suggest correction