Oops, an error
Loading. Please wait.
We have an official Girls Not Grey tab made by UG professional guitarists. Check out the tab »
×
by AFI
59,611 views 39 this week
23 commentsread comments
1 2 3 4 5
x 38
add to favorites
×
Save as Personal and add changes to this tab that will be seen only by you. Learn more ›
×
You can save this tab as Personal to edit and correct it or add notes. All changes will be seen only by you. Learn more »
save as personal
new!
launch autoscroll
font size
0
reset
how to read this tab
guitar tuner
backing track
0:00
0:00
Autoscroll
slow
fast
+/-
esc
set tempo
stop
(Gtr 1)
e|-5-(5)-5-5-------------3-(3)-3-3-5-5-|-5-5-5-(5)-5-5--| 
B|-5-(5)-5-5-10-10-10-10-3-(3)-3-3-5-5-|-5-5-5-(5)-5-5--| 
G|-5-(5)-5-5-10-10-10-10-4-(4)-4-4-5-5-|-5-5-5-(5)-5-5--| 
D|-7-(7)-7-7-10-10-10-10-5-(5)-5-5-7-7-|-7-7-7-(7)-7-7--| 
A|-7-(7)-7-7--8--8--8--8-5-(5)-5-5-7-7-|-7-7-7-(7)-7-7--| 
E|-5-(5)-5-5--8--8--8--8-3-(3)-3-3-5-5-|-5-5-5-(5)-5-5--| 

e|---------------------------------12-12-3-3-| 
B|-10-10-10-10\12-(12)-12-12-12--0-13-13-3-3-| 
G|-10-10-10-10\12-(12)-12-12-12--0-14-14-4-4-| 
D|-10-10-10-10\12-(12)-12-12-12--0-14-14-5-5-| 
A|--8--8--8--8\10-(10)-10-10-10----12-12-5-5-| 
E|--8--8--8--8\10-(10)-10-10-10----12-12-3-3-| 

(The over dubed part starts here)
e|-5-(5)-5-5-------------3-(3)-3-3-5-5-5-5--| 
B|-5-(5)-5-5-10-10-10-10-3-(3)-3-3-5-5-5-5--| 
G|-5-(5)-5-5-10-10-10-10-4-(4)-4-4-5-5-5-5--| 
D|-7-(7)-7-7-10-10-10-10-5-(5)-5-5-7-7-7-7--| 
A|-7-(7)-7-7--8--8--8--8-5-(5)-5-5-7-7-7-7--| 
E|-5-(5)-5-5--8--8--8--8-3-(3)-3-3-5-5-5-5--| 

e|-5-(5)-5-5-----------------------------| 
B|-5-(5)-5-5-10-10-10-10-----------------| 
G|-5-(5)-5-5-10-10-10-10-----------------| 
D|-7-(7)-7-7-10-10-10-10-----------------| 
A|-7-(7)-7-7--8--8--8--8-10-10-(10)-5-7--| 
E|-5-(5)-5-5--8--8--8--8--8--7--(7)-3-5--| 

(Gtr 2. Overdub)
e|-------------------------------------------------------------------------------------------| 
B|-------------------------------------------------------------------------------------------| 
G|-------7h9--9-----4h5-5-5-----4-4-4p0--0~~--7h9~~--9-9-9-----7h9--9-9--4h5-5-5p0--5p4-0h2--| 
D|--0-0--7----7-----3-------------------------7~~~~--7-7-7-----7----7-7----------0-----------| 
A|-------0----0--0--0--------0----------------0~~~~--0-0-0--0--0----0-0----------------------| 
E|----------------------------------------------------------0--------------------------------| 

[Verse] 
e|-------------------------------------------------------------------------------| 
B|-------------------------------------------------------------------------------| 
G|-------5-5-5-5-5--7-7-7-7-7-7--5-5-5-5-5--4-4-4-4-4-4--5-5-5-5-5--7-7-7-7-7-7--| 
D|-------7-7-7-7-7--5-5-5-5-5-5--3-3-3-3-3--5-5-5-5-5-5--7-7-7-7-7--5-5-5-5-5-5--| 
A|-(7)---------------------------------------------------------------------------| 
E|-(5)---------------------------------------------------------------------------| 

e|------------------------------------------------------------------------------------| 
B|------------------------------------------------------------------------------------|
G|-7-7-7-7-7--5-5-5-5-5-5--5-5-5-5-5--7-7-7-7-7-7--5-5-5-5-5--4-4-4-4-4-4--5-5-5-5-5--| 
D|-4-4-4-4-4--3-3-3-3-3-3--7-7-7-7-7--5-5-5-5-5-5--3-3-3-3-3--5-5-5-5-5-5--7-7-7-7-7--| 
A|------------------------------------------------------------------------------------| 
E|------------------------------------------------------------------------------------|
                          .............................p.m...........................

e|--------------------------------------| 
B|--------------------------------------|
G|-7-7-7-7-7-7--7-7-7-7-7--5-5-5-5-5-5--|
D|-5-5-5-5-5-5--4-4-4-4-4--3-3-3-3-3-3--|
A|--------------------------------------|
E|--------------------------------------|
  ...p.m.....

e|------------------------------------------------------------------------------| 
B|------------------------------------------------------------------------------| 
G|-5-5-5-5-5--7-7-7-7-7-7--5-5-5-5-5-5--4-4-4-4-4--9-9-9-9-9-9--12-12-12-12-12--| 
D|-7-7-7-7-7--5-5-5-5-5-5--3-3-3-3-3-3--5-5-5-5-5--7-7-7-7-7-7---9--9--9--9--9--| 
A|------------------------------------------------------------------------------| 
E|------------------------------------------------------------------------------| 

e|----------------------------------------------------------5-5-5-5-5-5-5-5-5-5----| 
B|----------------------------------------------------------5-5-5-5-5-5-5-5-5-5----| 
G|-12-12-12-12-12-12--12-12-12-12-12-12-12----------5-5-5-5-5-5-5-5-5-5-5-5-5-5----| 
D|-10-10-10-10-10-10--12-12-12-12-12-12-12----------7-7-7-7-7-7-7-7-7-7-7-7-7-7-0--| 
A|--------------------10-10-10-10-10-10-10----------7-7-7-7-7-7-7-7-7-7-7-7-7-7-0--| 
E|------------------------------------------5-5-5-5-5-5-5-5-5-5-5-5-5-5-5-5-5-5-0--| 

[Chorus]
e|--------------8--8--8--8-3-(3)-3-3-5--| 
B|-10-(10)------8--8--8--8-3-(3)-3-3-5--| 
G|-10-(10)-8----9--9--9--9-4-(4)-4-4-5--| 
D|-10-(10)-8-8-10-10-10-10-5-(5)-5-5-7--| 
A|--8--(8)-8-8-10-10-10-10-5-(5)-5-5-7--| 
E|--8--(8)---8--8--8--8--8-3-(3)-3-3-5--| 

e|-5-5-5---------------8--|--8--8--8-3-(3)-3-3-5--| 
B|-5-5-5-10-(10)-10----8--|--8--8--8-3-(3)-3-3-5--| 
G|-5-5-5-10-(10)-10----9--|--9--9--9-4-(4)-4-4-5--| 
D|-7-7-7-10-(10)-10-8-10--|-10-10-10-5-(5)-5-5-7--| 
A|-7-7-7--8--(8)--8-8-10--|-10-10-10-5-(5)-5-5-7--| 
E|-5-5-5--8--(8)--8-8--8--|--8--8--8-3-(3)-3-3-5--| 

e|-5-5-5-|---------------8--8--8--8-3-(3)-3-3-5--| 
B|-5-5-5-|-10-(10)-10----8--8--8--8-3-(3)-3-3-5--| 
G|-5-5-5-|-10-(10)-10----9--9--9--9-4-(4)-4-4-5--| 
D|-7-7-7-|-10-(10)-10-8-10-10-10-10-5-(5)-5-5-7--| 
A|-7-7-7-|--8--(8)--8-8-10-10-10-10-5-(5)-5-5-7--| 
E|-5-5-5-|--8--(8)--8-8--8--8--8--8-3-(3)-3-3-5--| 

e|-5-5-5-|---------------8---8--8--8-0-0-0-0-0-0-0-0----------------|  
B|-5-5-5-|-10-(10)-10----8---8--8--8-0-0-0-0-0-0-0-0-9-9-9-9-9-9-9--| 
G|-5-5-5-|-10-(10)-10----9---9--9--9-1-1-1-1-1-1-1-1-9-9-9-9-9-9-9--|
D|-7-7-7-|-10-(10)-10-8-10--10-10-10-2-2-2-2-2-2-2-2-9-9-9-9-9-9-9--|
A|-7-7-7-|--8--(8)--8-8-10--10-10-10-2-2-2-2-2-2-2-2-7-7-7-7-7-7-7--|
E|-5-5-5-|--8--(8)--8-8--8---8--8--8-0-0-0-0-0-0-0-0-7-7-7-7-7-7-7--|

e|-------------------------------| 
B|-------------------------------| 
G|-16-16-16-16-16-16-16-16-16-16-| 
D|-------------------------------| 
A|-14-14-14-14-14-14-14-14-14-14-| 
E|-------------------------------| 

[Verse]
e|-------------------------------------------------------------------------------| 
B|-------------------------------------------------------------------------------| 
G|-------5-5-5-5-5--7-7-7-7-7-7--5-5-5-5-5--4-4-4-4-4-4--5-5-5-5-5--7-7-7-7-7-7--| 
D|-------7-7-7-7-7--5-5-5-5-5-5--3-3-3-3-3--5-5-5-5-5-5--7-7-7-7-7--5-5-5-5-5-5--| 
A|-(7)---------------------------------------------------------------------------| 
E|-(5)---------------------------------------------------------------------------| 

e|------------------------------------------------------------------------------------| 
B|------------------------------------------------------------------------------------|
G|-7-7-7-7-7--5-5-5-5-5-5--5-5-5-5-5--7-7-7-7-7-7--5-5-5-5-5--4-4-4-4-4-4--5-5-5-5-5--| 
D|-4-4-4-4-4--3-3-3-3-3-3--7-7-7-7-7--5-5-5-5-5-5--3-3-3-3-3--5-5-5-5-5-5--7-7-7-7-7--| 
A|------------------------------------------------------------------------------------| 
E|------------------------------------------------------------------------------------|
                          .............................p.m...........................

e|--------------------------------------| 
B|--------------------------------------|
G|-7-7-7-7-7-7--7-7-7-7-7--5-5-5-5-5-5--|
D|-5-5-5-5-5-5--4-4-4-4-4--3-3-3-3-3-3--|
A|--------------------------------------|
E|--------------------------------------|
  ...p.m..... Fade out of p.m.'s

e|------------------------------------------------------------------------------| 
B|------------------------------------------------------------------------------| 
G|-5-5-5-5-5--7-7-7-7-7-7--5-5-5-5-5-5--4-4-4-4-4--9-9-9-9-9-9--12-12-12-12-12--| 
D|-7-7-7-7-7--5-5-5-5-5-5--3-3-3-3-3-3--5-5-5-5-5--7-7-7-7-7-7---9--9--9--9--9--| 
A|------------------------------------------------------------------------------| 
E|------------------------------------------------------------------------------| 

e|----------------------------------------------------------5-5-5-5-5-5-5-5-5-5----| 
B|----------------------------------------------------------5-5-5-5-5-5-5-5-5-5----| 
G|-12-12-12-12-12-12--12-12-12-12-12-12-12----------5-5-5-5-5-5-5-5-5-5-5-5-5-5----| 
D|-10-10-10-10-10-10--12-12-12-12-12-12-12----------7-7-7-7-7-7-7-7-7-7-7-7-7-7-0--| 
A|--------------------10-10-10-10-10-10-10----------7-7-7-7-7-7-7-7-7-7-7-7-7-7-0--| 
E|------------------------------------------5-5-5-5-5-5-5-5-5-5-5-5-5-5-5-5-5-5-0--| 

[Chorus]
e|--------------8--8--8--8-3-(3)-3-3-5--| 
B|-10-(10)------8--8--8--8-3-(3)-3-3-5--| 
G|-10-(10)-8----9--9--9--9-4-(4)-4-4-5--| 
D|-10-(10)-8-8-10-10-10-10-5-(5)-5-5-7--| 
A|--8--(8)-8-8-10-10-10-10-5-(5)-5-5-7--| 
E|--8--(8)---8--8--8--8--8-3-(3)-3-3-5--| 

e|-5-5-5-|---------------8--8--8--8-3-(3)-3-3-5--| 
B|-5-5-5-|-10-(10)-10----8--8--8--8-3-(3)-3-3-5--| 
G|-5-5-5-|-10-(10)-10----9--9--9--9-4-(4)-4-4-5--| 
D|-7-7-7-|-10-(10)-10-8-10-10-10-10-5-(5)-5-5-7--| 
A|-7-7-7-|--8--(8)--8-8-10-10-10-10-5-(5)-5-5-7--| 
E|-5-5-5-|--8--(8)--8-8--8--8--8--8-3-(3)-3-3-5--| 

e|-5-5-5-|---------------8--8--8--8-3-(3)-3-3-5--| 
B|-5-5-5-|-10-(10)-10----8--8--8--8-3-(3)-3-3-5--| 
G|-5-5-5-|-10-(10)-10----9--9--9--9-4-(4)-4-4-5--| 
D|-7-7-7-|-10-(10)-10-8-10-10-10-10-5-(5)-5-5-7--| 
A|-7-7-7-|--8--(8)--8-8-10-10-10-10-5-(5)-5-5-7--| 
E|-5-5-5-|--8--(8)--8-8--8--8--8--8-3-(3)-3-3-5--| 

e|-5-5-5-|---------------8--8--8--8----------------| 
B|-5-5-5-|-10-(10)-10----8--8--8--8-0-0-0-0-0-0-0--| 
G|-5-5-5-|-10-(10)-10----9--9--9--9-1-1-1-1-1-1-1--| 
D|-7-7-7-|-10-(10)-10-8-10-10-10-10-2-2-2-2-2-2-2--| 
A|-7-7-7-|--8--(8)--8-8-10-10-10-10-2-2-2-2-2-2-2--| 
E|-5-5-5-|--8--(8)--8-8--8--8--8--8-0-0-0-0-0-0-0--| 

e|-----------------------------------------------| 
B|-9-9-9-9-9-9-9-9-------------------------------| 
G|-9-9-9-9-9-9-9-9-16-16-16-16-16-16-16-16-16-16-| 
D|-9-9-9-9-9-9-9-9-------------------------------| 
A|-7-7-7-7-7-7-7-7-14-14-14-14-14-14-14-14-14-14-| 
E|-7-7-7-7-7-7-7-7-------------------------------| 

[Bridge]
e|-5-5-5-5-5----------------| 
B|-6-6-6-6-6-5-5-5-5-5-5-5--| 
G|-7-7-7-7-7-5-5-5-5-5-5-5--| 
D|-9-9-9-9-9-5-5-5-5-5-5-5--| 
A|-5-5-5-5-5-3-3-3-3-3-3-3--| 
E|-5-5-5-5-5-3-3-3-3-3-3-3--| 

e|-3-3-3-3-3-5-5-5-5-5-5-5-5-5-5-5-5----------------| 
B|-3-3-3-3-3-5-5-5-5-5-5-5-6-6-6-6-6-5-5-5-5-5-5-5--| 
G|-4-4-4-4-4-5-5-5-5-5-5-5-7-7-7-7-7-5-5-5-5-5-5-5--| 
D|-5-5-5-5-5-7-7-7-7-7-7-7-7-7-7-7-7-5-5-5-5-5-5-5--| 
A|-5-5-5-5-5-7-7-7-7-7-7-7-5-5-5-5-5-3-3-3-3-3-3-3--| 
E|-3-3-3-3-3-5-5-5-5-5-5-5-5-5-5-5-5-3-3-3-3-3-3-3--| 

e|-3-3-3-3-3-5-5-5-5-5-5------------------| 
B|-3-3-3-3-3-5-5-5-5-5-5------------------| 
G|-4-4-4-4-4-5-5-5-5-5-5------------------| 
D|-5-5-5-5-5-7-7-7-7-7-7------------------| 
A|-5-5-5-5-5-7-7-7-7-7-7-----10-10-10-10--| 
E|-3-3-3-3-3-5-5-5-5-5-5-0-0--7--8--8--8--| 

e|----------------------12-12-12-12-12-12-12--| 
B|-12-12-12-12-12-12-12-13-13-13-13-13-12-12--| 
G|-12-12-12-12-12-12-12-14-14-14-14-14-14-14--| 
D|-12-12-12-12-12-12-12-14-14-14-14-14-14-14--| 
A|-10-10-10-10-10-10-10-12-12-12-12-12-12-12--| 
E|-10-10-10-10-10-10-10-12-12-12-12-12-12-12--| 

[Interlude] 
e|-12-12-12-12-12-12-12-12-12-12-5-5-|-5-5-5--------------|---------0-(0)------| 
B|-12-12-12-12-12-13-13-13-13-13-6-6-|-6-6-6-5-5-5-(5)----|-(5)-----------0----| 
G|-14-14-14-14-14-14-14-14-14-14-7-7-|-7-7-7-5-5-5-(5)----|-(5)----------------| 
D|-14-14-14-14-14-14-14-14-14-14-7-7-|-7-7-7-5-5-5-(5)----|-(5)---7---------7--| 
A|-12-12-12-12-12-12-12-12-12-12-5-5-|-5-5-5-3-3-3-(3)----|-(3)----------------| 
E|-12-12-12-12-12-12-12-12-12-12-5-5-|-5-5-5-3-3-3-(3)----|-(3)----------------| 

e|-0-(0)---------0---|----------------0-|----------0-------|-------0--------| 
B|-------0---------0-|-(0)----(0)-------|-0-(0)------0-----|---------0------| 
G|---------5---------|------------------|--------------5---|----------------| 
D|-----------7-5-----|--------------7---|-------7--------7-|-(7)-6-----6----| 
A|-------------------|------------------|------------------|----------------| 
E|-------------------|------------------|------------------|----------------| 

e|-0-----0-(0)------|-0-------------0---|----------------0-|-(0)------0---------| 
B|-0-----------0----|---0-------------0-|-(0)----(0)-------|-----0------0-(0)---| 
G|------------------|-----5-------------|------------------|------------------5-| 
D|-----7---------7--|-------0-(0)-5-----|--------------7---|-------7------------| 
A|------------------|-------------------|------------------|--------------------| 
E|------------------|-------------------|------------------|--------------------| 

e|-----0-----------------|----------------12-------| 
B|-------0---------------|-------------------13----| 
G|-----------------------|-------------14-------14-| 
D|-0-5-----4-(4)-(4)-(4)-|-(4)-(4)S2-0-------------| 
A|-----------------------|-------------------------| 
E|-----------------------|-------------------------| 

e|-12-----------------------12-|-(12)----(12)--------| 
B|----13-(13)------------------|----------------(12)-| 
G|------------14-(14)-14-12----|---------------------| 
D|-----------------------------|---------------------| 
A|-----------------------------|---------------------| 
E|-----------------------------|---------------------| 

e|----12-------12------------|----15--------13-(13)----| 
B|-------13-------13-(13)----|-------13-------------13-| 
G|-14-------14------------14-|-14-------14-------------| 
D|---------------------------|-------------------------| 
A|---------------------------|-------------------------| 
E|---------------------------|-------------------------| 

e|-----------------12-------12--|-----------------------12-----| 
B|-(13)---------------13--------|-13-----------------------12--| 
G|------14-(14)-14-------14-----|----14-(14)-14-(14)-12--------| 
D|------------------------------|------------------------------| 
A|------------------------------|------------------------------| 
E|------------------------------|------------------------------| 

e|-----------------|-12-------12----------------| 
B|-----------------|----13--------13------------| 
G|-12----(12)---14-|-------14--------14-(14)-14-| 
D|-----------------|----------------------------| 
A|-----------------|----------------------------| 
E|-----------------|----------------------------| 

e|------15-------15-------15-|----13-------13-------13--| 
B|---------13-------13-------|-14----13-------13--------| 
G|-(14)-------14-------14----|----------14-------14-----| 
D|---------------------------|--------------------------| 
A|---------------------------|--------------------------| 
E|---------------------------|--------------------------| 

e|-----------------------------------------------| 
B|-----------------------------------------------| 
G|---14-14-14-14-12-12-12-12-10-10-10-10-9-9-9-9-| 
D|----x--x--x--x--x--x--x--x--x--x--x--x-x-x-x-x-| 
A|---12-12-12-12-10-10-10-10--8--8--8--8-7-7-7-7-| 
E|-0---------------------------------------------| 

[Chorus] 
e|--------------8--8--8--8-3-(3)-3-3-5--| 
B|-10-(10)------8--8--8--8-3-(3)-3-3-5--| 
G|-10-(10)-8----9--9--9--9-4-(4)-4-4-5--| 
D|-10-(10)-8-8-10-10-10-10-5-(5)-5-5-7--| 
A|--8--(8)-8-8-10-10-10-10-5-(5)-5-5-7--| 
E|--8--(8)---8--8--8--8--8-3-(3)-3-3-5--| 

e|-5-5-5-|---------------8--8--8--8-3-(3)-3-3-5--| 
B|-5-5-5-|-10-(10)-10----8--8--8--8-3-(3)-3-3-5--| 
G|-5-5-5-|-10-(10)-10----9--9--9--9-4-(4)-4-4-5--| 
D|-7-7-7-|-10-(10)-10-8-10-10-10-10-5-(5)-5-5-7--| 
A|-7-7-7-|--8--(8)--8-8-10-10-10-10-5-(5)-5-5-7--| 
E|-5-5-5-|--8--(8)--8-8--8--8--8--8-3-(3)-3-3-5--| 

e|-5-5-5-|---------------8--8--8--8-3-(3)-3-3-5--| 
B|-5-5-5-|-10-(10)-10----8--8--8--8-3-(3)-3-3-5--| 
G|-5-5-5-|-10-(10)-10----9--9--9--9-4-(4)-4-4-5--| 
D|-7-7-7-|-10-(10)-10-8-10-10-10-10-5-(5)-5-5-7--| 
A|-7-7-7-|--8--(8)--8-8-10-10-10-10-5-(5)-5-5-7--| 
E|-5-5-5-|--8--(8)--8-8--8--8--8--8-3-(3)-3-3-5--| 

e|-5-5-5-|---------------8--8--8--8----------------| 
B|-5-5-5-|-10-(10)-10----8--8--8--8-0-0-0-0-0-0-0--| 
G|-5-5-5-|-10-(10)-10----9--9--9--9-1-1-1-1-1-1-1--| 
D|-7-7-7-|-10-(10)-10-8-10-10-10-10-2-2-2-2-2-2-2--| 
A|-7-7-7-|--8--(8)--8-8-10-10-10-10-2-2-2-2-2-2-2--| 
E|-5-5-5-|--8--(8)--8-8--8--8--8--8-0-0-0-0-0-0-0--| 

e|-----------------------------------------------| 
B|-9-9-9-9-9-9-9-9-------------------------------| 
G|-9-9-9-9-9-9-9-9-16-16-16-16-16-16-16-16-16-16-| 
D|-9-9-9-9-9-9-9-9-------------------------------| 
A|-7-7-7-7-7-7-7-7-14-14-14-14-14-14-14-14-14-14-| 
E|-7-7-7-7-7-7-7-7-------------------------------| 

[Outro]
e|-5-(5)-5-5-------------3-(3)-3-3-5-5-|-5-5-5-(5)-5-5--| 
B|-5-(5)-5-5-10-10-10-10-3-(3)-3-3-5-5-|-5-5-5-(5)-5-5--| 
G|-5-(5)-5-5-10-10-10-10-4-(4)-4-4-5-5-|-5-5-5-(5)-5-5--| 
D|-7-(7)-7-7-10-10-10-10-5-(5)-5-5-7-7-|-7-7-7-(7)-7-7--| 
A|-7-(7)-7-7--8--8--8--8-5-(5)-5-5-7-7-|-7-7-7-(7)-7-7--| 
E|-5-(5)-5-5--8--8--8--8-3-(3)-3-3-5-5-|-5-5-5-(5)-5-5--| 

e|---------------------------------12-12-3-3-| 
B|-10-10-10-10S12-(12)-12-12-12--0-13-13-3-3-| 
G|-10-10-10-10S12-(12)-12-12-12--0-14-14-4-4-| 
D|-10-10-10-10S12-(12)-12-12-12--0-14-14-5-5-| 
A|--8--8--8--8S10-(10)-10-10-10----12-12-5-5-| 
E|--8--8--8--8S10-(10)-10-10-10----12-12-3-3-| 

 The over dubed part starts here 
e|-5-(5)-5-5-------------3-(3)-3-3-5-5-5-5--| 
B|-5-(5)-5-5-10-10-10-10-3-(3)-3-3-5-5-5-5--| 
G|-5-(5)-5-5-10-10-10-10-4-(4)-4-4-5-5-5-5--| 
D|-7-(7)-7-7-10-10-10-10-5-(5)-5-5-7-7-7-7--| 
A|-7-(7)-7-7--8--8--8--8-5-(5)-5-5-7-7-7-7--| 
E|-5-(5)-5-5--8--8--8--8-3-(3)-3-3-5-5-5-5--| 

e|-5-(5)-5-5-----------------------------| 
B|-5-(5)-5-5-10-10-10-10-----------------| 
G|-5-(5)-5-5-10-10-10-10-----------------| 
D|-7-(7)-7-7-10-10-10-10-----------------| 
A|-7-(7)-7-7--8--8--8--8-10-10-(10)-5-7--| 
E|-5-(5)-5-5--8--8--8--8--8--7--(7)-3-5--|  End here for over dubed 

(Gtr 2. Overdub)
e|-------------------------------------------------------------------------------------------| 
B|-------------------------------------------------------------------------------------------| 
G|-------7h9--9-----4h5-5-5-----4-4-4p0--0~~--7h9~~--9-9-9-----7h9--9-9--4h5-5-5p0--5p4-0h2--| 
D|--0-0--7----7-----3-------------------------7~~~~--7-7-7-----7----7-7----------0-----------| 
A|-------0----0--0--0--------0----------------0~~~~--0-0-0--0--0----0-0----------------------| 
E|----------------------------------------------------------0--------------------------------| 

e|------------*| 
B|------------*| 
G|------------*| 
D|------------*| 
A|-(7)--------*| 
E|-(5)--------*|
Suggest correction
comments
print report bad tab
23 comments total. Showing first comments.
+1 reply
LPFan012 10 Dec 21, 2003 07:00 PM

holy schit, this is a nice tab

0 reply
worldgoingdown 60 Feb 07, 2004 07:00 PM

its in standard inor everything a half step down

+1 reply
trevdogafi 45 Feb 27, 2004 07:00 PM

thanks dude

guest
You may want to rate the tab now too:
select rating
Wanna post a correction for this tab? Suggest correction