Oops, an error
Loading. Please wait.
We have an official Girls Not Grey tab made by UG professional guitarists. Check out the tab »
×
by AFI
5,186 views 3 this week
2 commentsread comments
1 2 3 4 5
x 4
add to favorites
×
Save as Personal and add changes to this tab that will be seen only by you. Learn more ›
×
You can save this tab as Personal to edit and correct it or add notes. All changes will be seen only by you. Learn more »
launch autoscroll
font size
0
reset
how to read this tab
guitar tuner
backing track
0:00
0:00
edit
Autoscroll
slow
fast
+/-
esc
set tempo
stop
Author
----------------------------------------------------------------------------
                             Girls Not Grey - AFI
----------------------------------------------------------------------------
this should be 100% correct and it's in the right order too


Tabbed by: Jeff

Tuning: half step down


guitar 1&2
e|--5--5-----------------------------3--3-------5---(5)---5--5-------------|
B|--5--5-----10---(10)--10--10-------3--3-------5---(5)---5--5-------------|
G|--5--5-----10---(10)--10--10-------4--4-------5---(5)---5--5-------------|
D|--7--7-----10---(10)--10--10-------5--5-------7---(7)---7--7-------------|
A|--7--7-----8----(8)---8---8---0----5--5---0---7---(7)---7--7-------------|
E|--5--5--0--8----(8)---8---8---0----3--3---0---5---(5)---5--5---0---------|

guitar 1&2
e|--5--5-------------------------------------------12--12--12--12----------|
B|--5--5-----10---(10)--10--10-/-12----12---0--0---13--13--13--13----------|
G|--5--5-----10---(10)--10--10-/-12----12---0--0---14--14--14--14----------|
D|--7--7-----10---(10)--10--10-/-12----12---0--0---14--14--14--14---0---0--|
A|--7--7-----8----(8)---8---8--/-10----10----------12--12--12--12----------|
E|--5--5--0--8----(8)---8---8--/-10----10----------12--12--12--12----------|

guitar 3
e|-------------------------------------------------------------------------|
B|-------------------------------------------------------------------------|
G|-------------------------------------------------------------------------|
D|-------------------------------------------------------------------------|
A|-------------------------------------------------------------------------|
E|-----------------------------------------------------------------17\-----|

e|--5--5-----------------------------3--3-------5---(5)---5--5-------------|
B|--5--5-----10---(10)--10--10-------3--3-------5---(5)---5--5-------------|
G|--5--5-----10---(10)--10--10-------4--4-------5---(5)---5--5-------------|
D|--7--7-----10---(10)--10--10-------5--5-------7---(7)---7--7-------------|
A|--7--7-----8----(8)---8---8---0----5--5---0---7---(7)---7--7-------------|
E|--5--5--0--8----(8)---8---8---0----3--3---0---5---(5)---5--5---0---------|

guitar3
e|-------------------------------------------------------------------------|
B|-------------------------------------------------------------------------|
G|-7h--9--9-----4h--5--(5)--5---x--4--4p--0--0--(0)--7h--9--(9)--9--9--9---|
D|-7------7-----3------------------------------------7------(7)--7--7--7---|
A|-0------0--0--0-------------0----------------------0------(0)--0--0--0--0|
E|------------------------------------------------------------------------0|

guitar 1&2
e|--5-----5----------------------------------------------------------------|
B|--5-----5--------10---(10)--10--10---------------------------------------|
G|--5-----5--------10---(10)--10--10---------------------------------------|
D|--7-----7--------10---(10)--10--10---------------------------------------|
A|--7-----7--------8----(8)---8---8---0----10----10----(10)-----5----7-----|
E|--5-----5---0----8----(8)---8---8---0----8-----7-----(7)------3----5-----|

guitar 3
e|-------------------------------------------------------------------------|
B|-------------------------------------------------------------------------|
G|-7h--9---9--9---4/5--(5)---5---5----0-----5---4---(4)---0--2--x----------|
D|-7-------7--7-----------------------0------------------------------------|
A|-0-------0--0----------------------------------------------------3b(1/4)-|
E|-------------------------------------------------------------------------|

guitar 1&2
e|-------------------------------------------------------------------------|
B|-------------------------------------------------------------------------|
G|--5--5--5p--0--0--7--(7)--7---7/5---5--5--5--0--x--4--(4)--4----0--------|
D|--7--7--7---0--0--5--(5)--5---5/3---3--3--3--0--x--5--(5)--5----0--------|
A|--0--0------------0--(0)--0---------0---------------------------0--------|
E|-------------------------------------------------------------------------|

guitar 3
e|-------------------------------------------------------------------------|
B|-------------------------------------------------------------------------|
G|-------------------------------------------------------------------------|
D|-------------------------------------------------------------------------|
A|---0-------------------------------------------------(0)-----------------|
E|-------------------------------------------------------------------------|

e|-------------------------------------------------------------------------|
B|-------------------------------------------------------------------------|
G|--5--5--5p--0--7--(7)--7------7-------7--7--7\--5--5--(5)--5-----0-------|
D|--7--7--7------5--(5)--5------5\4-----4--4--4---3--3--(3)--3-----0-------|
A|--0--0-----------------------------------------------------------0-------|
E|-------------------------------------------------------------------------|

   P.M.----------------------------------------------------------------------|
e|---------------------------------------------------------------------------|
B|---------------------------------------------------------------------------|
G|-5-5-5-5-0-7-(7)--7--7--7--7-0--5-5--5--5--5-0--4-(4)--4--4--4--4----------|
D|-7-7-7-7-0-5-(5)--5--5--5--5-0--3-3--3--3--3-0--5-(5)--5--5--5--5--0-(7)---|
A|-0-0-0-0---0-(0)--0--0--0--0-0----0--0--0--0----0-(0)--0--0--0--0--0-------|
E|---------------------------------------------------------------------------|

   P.M.----------------------------------------------------------------------|
e|---------------------------------------------------------------------------|
B|---------------------------------------------------------------------------|
G|-5-5-5-5--0--7--(7)--7--7--7--7-----7--7--7\--5--5--(5)--5--5--5p--0--0----|
D|-7-7-7-7--0--5--(5)--5--5--5--5\4---4--4--4---3--3--(3)--3--3--3---0--0----|
A|-0-0-0-0-----0--(0)--0--0--0--0-----0--0--0---0--0--(0)--0--0--0-----------|
E|---------------------------------------------------------------------------|

e|-------------------------------------------------------------------------|
B|-------------------------------------------------------------------------|
G|--5--5--5p--0--0--7--(7)--7----7\5---5--5--5--0--x--4--(4)--4----0-------|
D|--7--7--7---0--0--5--(5)--5----5\3---3--3--3--0--x--5--(5)--5----0-------|
A|--0--0--0---------0--(0)--0----------0--0--0--------0--(0)--0----0-------|
E|-------------------------------------------------------------------------|

                                                         P.M.->
e|------------------------------------------------------0-----------55555--|
B|------------------------------------------------------------------55555--|
G|999/12-12-(12)-12-12-12-12-12-12-0-1212-(12)-121212-12--------555555555--|
D|777/9--9--(9)--9--9--9--10-10-10---1212-(12)-121212-12-0------777777777-0|
A|000/0--0--(0)--0--0--0--0--0--0----1010-(10)-101010-10-0------777777777-0|
E|-------------------------------------------------------0-5555-555555555-0|

e|------------8---(8)----8---8-------3--3-------5---(5)---5---5---5--------|
B|--10--------8---(8)----8---8-------3--3-------5---(5)---5---5---5--------|
G|--10--8-----9---(9)----9---9-------4--4-------5---(5)---5---5---5--------|
D|--10--8--8--10--(10)---10--10--0---5--5-------7---(7)---7---7---7--------|
A|--8---8--8--10--(10)---10--10--0---5--5-------7---(7)---7---7---7---0----|
E|--8------8--8---(8)----8---8---0---3--3---0---5---(5)---5---5---5---0----|

           P.M.
e|--------------8---(8)---8---8-----------3---3-------5---(5)---5---5------|
B|--10--10------8---(8)---8---8---0---0---3---3-------5---(5)---5---5------|
G|--10--10------9---(9)---9---9---0---0---4---4-------5---(5)---5---5---0--|
D|--10--10--8---10--(10)--10--10--0---0---5---5-------7---(7)---7---7---0--|
A|--8---8---8---10--(10)--10--10--0---0---5---5-------7---(7)---7---7---0--|
E|--8---8---8---8---(8)---8---8---0---0---3---3---0---5---(5)---5---5---0--|

           P.M.
e|--------------8---(8)---8---8-----------3---3-------5---(5)---5--5--5----|
B|--10--10------8---(8)---8---8-----------3---3-------5---(5)---5--5--5--0-|
G|--10--10------9---(9)---9---9-----------4---4-------5---(5)---5--5--5--0-|
D|--10--10--8---10--(10)--10--10----------5---5-------7---(7)---7--7--7--0-|
A|--8---8---8---10--(10)--10--10--0---0---5---5---0---7---(7)---7--7--7--0-|
E|--8---8---8---8---(8)---8---8---0---0---3---3---0---5---(5)---5--5--5----|

e|----------------8---(8)----8-------------0-----0-------------------------|
B|---10---10------8---(8)----8----0---0----0-----0---0---9---9---9---0-----|
G|---10---10------9---(9)----9----0---0----1-----1---0---9---9---9---0-----|
D|---10---10--8---10--(10)---10---0---0----2-----2---0---9---9---9---0-----|
A|---8----8---8---10--(10)---10---0---0----2-----2-------7---7---7---------|
E|---8----8---8---8---(8)----8----0---0----0-----0-------7---7---7---------|

e|-------------------------------------------------------------------------|
B|-------------------------------------------------------------------------|
G|---16---16--16--16--16--16--16--16--16--16--16--16--16p---0---0----------|
D|---xx---xx--xx--xx--xx--xx--xx--xx--xx--xx--xx--xx--xx----0---0----------|
A|---14---14--14--14--14--14--14--14--14--14--14--14--14----0---0----------|
E|---0----0---0---0---0---0---0---0---0---0---0---0---0--------------------|

guitar 1&2
e|-------------------------------------------------------------------------|
B|-------------------------------------------------------------------------|
G|--5--5--5p--0--0--7--(7)--7---7/5---5--5--5--0--x--4--(4)--4----0--------|
D|--7--7--7---0--0--5--(5)--5---5/3---3--3--3--0--x--5--(5)--5----0--------|
A|--0--0------------0--(0)--0---------0---------------------------0--------|
E|-------------------------------------------------------------------------|

  guitar 3
e|-------------------------------------------------------------------------|
B|-------------------------------------------------------------------------|
G|-------------------------------------------------------------------------|
D|-------------------------------------------------------------------------|
A|--0----------------------------------------(0)---------------------------|
E|-------------------------------------------------------------------------|

e|-------------------------------------------------------------------------|
B|-------------------------------------------------------------------------|
G|--5--5--5p--0--7--(7)--7------7-------7--7--7\--5--5--(5)--5-----0-------|
D|--7--7--7------5--(5)--5------5\4-----4--4--4---3--3--(3)--3-----0-------|
A|--0--0-----------------------------------------------------------0-------|
E|-------------------------------------------------------------------------|

  P.M.-----------------------------------------------------------------------|
e|---------------------------------------------------------------------------|
B|---------------------------------------------------------------------------|
G|-5-5-5-5-0-7-(7)--7--7--7--7-0--5-5--5--5--5-0--4-(4)--4--4--4--4----------|
D|-7-7-7-7-0-5-(5)--5--5--5--5-0--3-3--3--3--3-0--5-(5)--5--5--5--5--0-(7)---|
A|-0-0-0-0---0-(0)--0--0--0--0-0----0--0--0--0----0-(0)--0--0--0--0--0-------|
E|---------------------------------------------------------------------------|

 P.M.------------------------------------------------------------------------|
e|---------------------------------------------------------------------------|
B|---------------------------------------------------------------------------|
G|-5-5-5-5--0--7--(7)--7--7--7--7-----7--7--7\--5--5--(5)--5--5--5p--0--0----|
D|-7-7-7-7--0--5--(5)--5--5--5--5\4---4--4--4---3--3--(3)--3--3--3---0--0----|
A|-0-0-0-0-----0--(0)--0--0--0--0-----0--0--0---0--0--(0)--0--0--0-----------|
E|---------------------------------------------------------------------------|

e|-------------------------------------------------------------------------|
B|-------------------------------------------------------------------------|
G|--5--5--5p--0--0--7--(7)--7----7\5---5--5--5--0--x--4--(4)--4----0-------|
D|--7--7--7---0--0--5--(5)--5----5\3---3--3--3--0--x--5--(5)--5----0-------|
A|--0--0--0---------0--(0)--0----------0--0--0--------0--(0)--0----0-------|
E|-------------------------------------------------------------------------|

e|-------------------------------------------------------------0-----------|
B|-------------------------------------------------------------------------|
G|9-9-9/12-12-(12)-12-12-12-12-12-12-0-12-12-(12)-12-12-12-12--------------|
D|7-7-7/9--9--(9)--9--9--9--10-10-10---12-12-(12)-12-12-12-12------0-------|
A|0-0-0/0--0--(0)--0--0--0--0--0--0----10-10-(10)-10-10-10-10------0-------|
E|-----------------------------------------------------------------0-------|

     P.M.--------------------------------------------------------------------|
e|--------------------------------12---12---12---12---14---------------------|
B|--------------------------------13---13---13---13---13----0----------------|
G|---------------------------0----14---14---14---14---14----0----------------|
D|---------------------------0----14---14---14---14---14----0----------------|
A|---7---7---7---7---7---7---0----12---12---12---12---12---------------------|
E|---5---5---5---5---5---5---0----12---12---12---12---12---------------------|

e|------------8---(8)----8---8-------3--3-------5---(5)---5---5---5--------|
B|--10--------8---(8)----8---8-------3--3-------5---(5)---5---5---5--------|
G|--10--8-----9---(9)----9---9-------4--4-------5---(5)---5---5---5--------|
D|--10--8--8--10--(10)---10--10--0---5--5-------7---(7)---7---7---7--------|
A|--8---8--8--10--(10)---10--10--0---5--5-------7---(7)---7---7---7---0----|
E|--8------8--8---(8)----8---8---0---3--3---0---5---(5)---5---5---5---0----|

           P.M.
e|--------------8---(8)---8---8-----------3---3-------5---(5)---5---5------|
B|--10--10------8---(8)---8---8---0---0---3---3-------5---(5)---5---5------|
G|--10--10------9---(9)---9---9---0---0---4---4-------5---(5)---5---5---0--|
D|--10--10--8---10--(10)--10--10--0---0---5---5-------7---(7)---7---7---0--|
A|--8---8---8---10--(10)--10--10--0---0---5---5-------7---(7)---7---7---0--|
E|--8---8---8---8---(8)---8---8---0---0---3---3---0---5---(5)---5---5---0--|

          P.M.
e|--------------8---(8)---8---8-----------3---3-------5---(5)---5--5--5----|
B|--10--10------8---(8)---8---8-----------3---3-------5---(5)---5--5--5--0-|
G|--10--10------9---(9)---9---9-----------4---4-------5---(5)---5--5--5--0-|
D|--10--10--8---10--(10)--10--10----------5---5-------7---(7)---7--7--7--0-|
A|--8---8---8---10--(10)--10--10--0---0---5---5---0---7---(7)---7--7--7--0-|
E|--8---8---8---8---(8)---8---8---0---0---3---3---0---5---(5)---5--5--5----|

e|----------------8---(8)----8-------------0-----0-------------------------|
B|---10---10------8---(8)----8----0---0----0-----0---0---9---9---9---0-----|
G|---10---10------9---(9)----9----0---0----1-----1---0---9---9---9---0-----|
D|---10---10--8---10--(10)---10---0---0----2-----2---0---9---9---9---0-----|
A|---8----8---8---10--(10)---10---0---0----2-----2-------7---7---7---------|
E|---8----8---8---8---(8)----8----0---0----0-----0-------7---7---7---------|

e|-------------------------------------------------------------------------|
B|-------------------------------------------------------------------------|
G|---16---16--16--16--16--16--16--16--16--16--16--16--16p---0---0----------|
D|---xx---xx--xx--xx--xx--xx--xx--xx--xx--xx--xx--xx--xx----0---0----------|
A|---14---14--14--14--14--14--14--14--14--14--14--14--14----0---0----------|
E|---0----0---0---0---0---0---0---0---0---0---0---0---0--------------------|

e|-5--5--5----------------------3---3--3--3--------5--(5)--5--5--5--5------|
B|-6--6--6--------5--(5)--5--5--3---3--3--3--------5--(5)--5--5--5--5--5-5-|
G|-7--7--7-----x--5--(5)--5--5--3---4--4--4-----x--5--(5)--5--5--5--5--5-5-|
D|-7--7--7-----x--5--(5)--5--5--3---5--5--5-----x--7--(7)--7--7--7--7--5-5-|
A|-5--5--5--0-----3--(3)--3--3--3---5--5--5--0-----7--(7)--7--7--7--7--5-5-|
E|-5--5--5--0-----3--(3)--3--3------3--3--3--0-----5--(5)--5--5--5--5--5-5-|

                                                                P.M.-->
e|5--5--5--------------------------------3--3--3--------5--(5)-------------|
B|6--6--6-------5-(5)--5--5--5--5--3--3--3--3--3--------5--(5)-------------|
G|7--7--7-------5-(5)--5--5--5--5--3--3--4--4--4--------5--(5)-------------|
D|7--7--7-----x-5-(5)--5--5--5--5--3--3--5--5--5-----x--7--(7)-------------|
A|5--5--5--0--x-3-(3)--3--3--3--3--3--3--5--5--5--0--x--7--(7)-----------10|
E|5--5--5--0--x-3-(3)--3--3--3--3--3--3--3--3--3--0-----5--(7)--0--0--7--7-|

e|-------------------------------------12121212121212121212121212----------|
B|-------------12-(12)-12-12-12--------13131313131313131313131313----------|
G|-------------12-(12)-12-12-12--------14141414141414141414141414--0--0--0-|
D|-------------12-(12)-12-12-12--------14141414141414141414141414--0--0--0-|
A|10-10-10-----10-(10)-10-10-10--------12121212121212121212121212--0--0--0-|
E|8--8--8--0-0-10-(10)-10-10-10-\0-0-0-12121212121212121212121212--0--0--0-|

e|---5--5--5---------------------------------------3-----------------------|
B|---6--6--6---------5--(5)---5--5--5--------------3-----------------------|
G|---7--7--7--0--x---5--(5)---5--5--5--------------4-----------------------|
D|---7--7--7--0--x---5--(5)---5--5--5--------------5-----------------------|
A|---5--5--5--0--x---3--(3)---3--3--3--0--0--0-----5-----------------------|
E|---5--5--5---------3--(3)---3--3--3--0--0--0-----3-----------------------|

e|-------0-----------0---(0)-------------------0---------------------------|
B|-----------0-----------------0-------------------0----(0)----------------|
G|--------------------------------5----------------------------------------|
D|---7-----------7-------------------7-----5-------------------(0)gn-------|
A|-------------------------------------------------------------------------|
E|-------------------------------------------------------------------------|

e|-------0-----------------0----(0)--------------------0------------0------|
B|-----------0---(0)------------------0--------------------0--------0------|
G|----------------------------------------5--------------------------------|
D|---7-----------------7----------------------7----6-----------6-----------|
A|-------------------------------------------------------------------------|
E|-------------------------------------------------------------------------|

e|---------0-------------------0----(0)----------------------0-------------|
B|-------------0----(0)-------------------0-----------------------0--------|
G|--------------------------------------------5----------------------------|
D|---7--------------------7-----------------------0-----5------------------|
A|-------------------------------------------------------------------------|
E|-------------------------------------------------------------------------|

e|-----0------------------0---(0)------------------0-----------------------|
B|---------0----(0)-----------------0------------------0-------------------|
G|--------------------------------------5----------------------------------|
D|--7-----------------7---------------------0---5---------4--(4)--(4)\2--0-|
A|-------------------------------------------------------------------------|
E|-------------------------------------------------------------------------|

e|-------12------------------12---(12)----------------------12-------------|
B|------------13---(13)------------------13----------------------12--------|
G|---14------------------14------------------14---14---12------------------|
D|-------------------------------------------------------------------------|
A|-------------------------------------------------------------------------|
E|-------------------------------------------------------------------------|

e|------12-----------------12--(12)----------------15----------13----------|
B|----------13--(13)-----------------13----------------13----------13------|
G|--14-----------------14-----------------14---14----------14----------14--|
D|-------------------------------------------------------------------------|
A|-------------------------------------------------------------------------|
E|-------------------------------------------------------------------------|

e|-------12------------------12--(12)---------------------12---------------|
B|------------13---(13)-----------------13--------------------12--(12)-----|
G|---14------------------14-----------------14---14---12----------------12-|
D|-------------------------------------------------------------------------|
A|-------------------------------------------------------------------------|
E|-------------------------------------------------------------------------|

e|-----12----------------12--(12)--------------15----------15---------15---|
B|---------13--(13)----------------13--------------13----------13--------14|
G|-14----------------14----------------14--14----------14----------14------|
D|-------------------------------------------------------------------------|
A|-------------------------------------------------------------------------|
E|-------------------------------------------------------------------------|

e|--13----------13----------13\--------------------------------------------|
B|------13----------13-----------------------------------------------------|
G|----------14----------14----------14-14-14\12-12-12\10-10-10\9--9--9-----|
D|----------------------------------xx-xx-xx-xx-xx-xx-xx-xx-xx-x--x--x-----|
A|----------------------------------12-12-12\10-10-10\8--8--8\-7--7--7-----|
E|------------------------------0---------------------------------------0--|

e|---------------------8--(8)--8---8-------3--3--3--3-----5--(5)-5-5-5-5---|
B|--10--10--10--10-----8--(8)--8---8-------3--3--3--3-----5--(5)-5-5-5-5---|
G|--10--10--10--10--x--9--(9)--9---9-------4--4--4--4-----5--(5)-5-5-5-5---|
D|--10--10--10--10--x--10-(10)-10--10------5--5--5--5-----7--(7)-7-7-7-7---|
A|--8---8---8---8---x--10-(10)-10--10------5--5--5--5-----7--(7)-7-7-7-7--0|
E|--8---8---8---8------8--(8)--8---8---0---3--3--3--3--0--5--(5)-5-5-5-5--0|

e|--------------------8--(8)--8--8--8--8-----3-3-3------12(12)1212121212---|
B|-10--10--10--10-----8--(8)--8--8--8--8-----3-3-3------13(13)1313131313---|
G|-10--10--10--10--x--9--(9)--9--9--9--9-----4-4-4------14(14)1414141414--0|
D|-10--10--10--10--x--10-(10)-10-10-10-10----5-5-5------14(14)1414141414--0|
A|-8---8---8---8---x--10-(10)-10-10-10-10-0--5-5-5------12(12)1212121212--0|
E|-8---8---8---8------8--(8)--8--8--8--8--0--3-3-3-0-12-12(12)1212121212---|

e|--------------------8--(8)--8---8--8------3--3--3-------5--(5)-5-5-5-5---|
B|-10--10--10--10-----8--(8)--8---8--8------3--3--3-------5--(5)-5-5-5-5---|
G|-10--10--10--10--x--9--(9)--9---9--9------4--4--4-------5--(5)-5-5-5-5---|
D|-10--10--10--10--x--10-(10)-10--10-10-----5--5--5-------7--(7)-7-7-7-7---|
A|-8---8---8---8---x--10-(10)-10--10-10-0---5--5--5-------7--(7)-7-7-7-7--0|
E|-8---8---8---8------8--(8)--8---8--8--0---3--3--3\0--0--5--(5)-5-5-5-5--0|

e|------------------8--(8)--8--8--8---0-0--0-0-0--------7-(7)-7-7-7--------|
B|--10-10-10-10-----8--(8)--8--8--8---0-0--0-0-0--------9-(9)-9-9-9--0-0-0-|
G|--10-10-10-10--x--9--(9)--9--9--9---0-0--1-1-1--------9-(9)-9-9-9--0-0-0-|
D|--10-10-10-10--x--10-(10)-10-10-10--0-0--2-2-2--------9-(9)-9-9-9--0-0-0-|
A|--8--8--8--8------10-(10)-10-10-10--0-0--2-2-2--------7-(7)-7-7-7--------|
E|--8--8--8--8------8--(8)--8--8--8---0-0--0-0-0--0--x--7-(7)-7-7-7--------|

e|-------------------------------------------------------------------------|
B|-------------------------------------------------------------------------|
G|---16---16---16---16---16---16---16---16---16---16-----------------------|
D|---xx---xx---xx---xx---xx---xx---xx---xx---xx---xx-----------------------|
A|---14---14---14---14---14---14---14---14---14---14-----------------------|
E|---0----0----0----0----0----0----0----0----0----0----0---14\-------------|

e|--5--5----------------------------3--3-----5--(5)--5--5--5---------------|
B|--5--5--0--10--(10)-10--10--0-----3--3-----5--(5)--5--5--5---------------|
G|--5--5--0--10--(10)-10--10--0-----4--4-----5--(5)--5--5--5---------------|
D|--7--7--0--10--(10)-10--10--0--0--5--5-----7--(7)--7--7--7---------------|
A|--7--7-----8---(8)--8---8------0--5--5-----7--(7)--7--7--7---0--0--------|
E|--5--5-----8---(8)--8---8------0--3--3--0--5--(5)--5--5--5---0--0--------|

e|--5--5-------------------------------------------12--(12)--12------------|
B|--5--5--0--10--(10)--10--10--10------12--12------13--(13)--13---0--0-----|
G|--5--5--0--10--(10)--10--10--10------12--12------14--(14)--14---0--0-----|
D|--7--7--0--10--(10)--10--10--10--0---12--12--0---14--(14)--14---0--0-----|
A|--7--7-----8---(8)---8---8---8---0---10--10--0---12--(12)--12---0--0-----|
E|--5--5-----8---(8)---8---8---8---0---10--10--0---12--(12)--12---0--0-----|

e|--5--5-----------------------------3--3-----5--(5)--5--5-----------------|
B|--5--5--0--10--(10)--10--10--0-----3--3-----5--(5)--5--5-----------------|
G|--5--5--0--10--(10)--10--10--0-----4--4-----5--(5)--5--5-----------------|
D|--7--7--0--10--(10)--10--10--0--0--5--5-----7--(7)--7--7-----------------|
A|--7--7-----8---(8)---8---8------0--5--5--0--7--(7)--7--7-----------------|
E|--5--5-----8---(8)---8---8------0--3--3--0--5--(5)--5--5-----0-----------|

e|--5--5-------------------------------------------------------------------|
B|--5--5-------10---(10)---10----------------------------------------------|
G|--5--5---0---10---(10)---10----------------------------------------------|
D|--7--7---0---10---(10)---10---0---0--------------------------------------|
A|--7--7---0---8----(8)----8----0---0---10---10---(10)---5---7\------------|
E|--5--5-------8----(8)----8----0---0---8----7----(7)----3---5\------------|


| gn  ghost note
| ( ) sustained notes- don't play
| /  slide up
| \  slide down
| h  hammer-on
| p  pull-off
| ~  vibrato
| +  harmonic
| x  Mute note
============================================================================

            
            
Suggest correction
Creating personal tab
Creating personal tab
You can edit any tab online and save it as your Personal.

You can edit, replace or remove any tab part or add personal notes – all changes will be seen only by you.

Personal tabs can be accessed anytime from any device, even offline.
Learn more »
comments
print report bad tab
2 comments total.
0 reply
fixxmyhead 30 Apr 19, 2009 12:25 PM

the only thing that got messed up was that it added extra palm mutes in the verse twice more than what it's suppose to be and a little bit in the fill with the A5 two fingered power chord leading to Am/E not all of it is suppose to be palm muted

0 reply
ilovemyguitar 20 Apr 23, 2009 01:36 PM

GOOD JOB WITH THIS TAB!

guest
You may want to rate the tab now too:
select rating
Wanna post a correction for this tab? Suggest correction