Oops, an error
Loading. Please wait.

Head Like A Hole Bass

version 1
version 1

Whole song

Interactive

by AFI
1,050 views 1 this week
1 commentread comment
1 2 3 4 5
2 more votes to show rating
add to favorites
launch autoscroll
font size
0
reset
guitar tuner
×
Best way to learn
"Head Like A Hole"
Autoscroll
slow
fast
+/-
esc
set tempo
stop
Tabbed by: Punk_rocker27
IM handle: NewBreed 4lyfe

Alright, you can do this in standard, but I like it tuned down one half step. anyways,
even though it says I tabbed the whole song, I only tabbed parts, sorry. ANy questions
feel free to AOL instant message me.

(this is what I play for the beginning, if you heard the song, you know what i mean)
G-----------------------------------------------|
D-----------------------------------------------|
A-----------------------------------------------|
E-12-12---12-12---12-12---12-12---12-12---12-12-|

Verse (this basically played through the whole song except for the chourus, there is
also something else hunter plays but I'm not sure.) But that is the bass for the most
part.
G----------------------------------------------------------------|
D----------------------------------------------------------------|
A----------------------------------------------------------------|
E-12-0-0-13-0-10-12-5-0-0-3-0-10-12-0--12-0-0-13-0-10-12-0-5-5-5-|
Suggest correction
Give kudos to tab author, rate the tab!
1 2 3 4 5
comments
print report bad tab
1 comment total.
0 reply
Punk_Rocker27 141 Mar 28, 2005 07:00 PM

here are some corrections, well its right but here is some additions here is the verse:
(repeat)
G-------------------------------------|
D-------------------------------------|
A-------------------------------------|
E-12-0-0-13-0-10-12-0-5-0-0-3-10-12-0-|

also in the intro on the second repeat the bass goes like this:

G-------------------------------------|-----------------------------|
D-------------------------------------|-----------------------------|
A-------------------------------------|-----------------------------|
E-12-0-0-13-0-10-12-0-5-0-0-3-10-12-0-|-12-0-0-13-0-10-12-0-5--3--0-|

(if you have any questions AOL IM me at: NewBreed 4lyfe

guest
You may want to rate the tab now too:
select rating
Wanna post a correction for this tab? Suggest correction