Oops, an error
Loading. Please wait.

Interview tab

version 4
version 4

Whole song

Interactive

by AFI
5,232 views 1 this week
11 commentsread comments
1 2 3 4 5
x 7
add to favorites
×
Save as Personal and add changes to this tab that will be seen only by you. Learn more ›
×
You can save this tab as Personal to edit and correct it or add notes. All changes will be seen only by you. Learn more »
launch autoscroll
font size
0
reset
how to read this tab
guitar tuner
edit
Autoscroll
slow
fast
+/-
esc
set tempo
stop
Author
Difficulty
[The Interview]
[AFI]
[Decemberunderground]

By: Joshua Oliveira
Tuning:D# G# C# F# A# D# (Regular AFI)

[Intro/Verse 1] - [00:00] - [00:56]
- ------------------------------------3--3--2-------------------------|
- ----------------------------------0---0--0--------------------------|
- --------------------------------------------------------------------|
- -0-0-0-0-0-0-0-0-0-0-0-0-0-0-0-0---0-0--0---0-0-0-0-0-0-0-0-0-0-0-0-|
- --------------------------------------------------------------------|
- --------------------------------------------------------------------|

  ------------3--3--2------------------------------------3--3--2-----|
  ----------0---0--0-----------------------------------0---0--0------|
  -------------------------------------------------------------------|
  -0-0-0-0---0-0--0---0-0-0-0-0-0-0-0-0-0-0-0-0-0-0-0---0-0--0---0-0-|
  -------------------------------------------------------------------|
  -------------------------------------------------------------------|

  ---------------------------------3--3--2---------------------------|
  -------------------------------0---0--0----------------------------|
  -------------------------------------------------------------------|
  --0-0-0-0-0-0-0-0-0-0-0-0-0-0---0-0--0---0-0-0-0-0-0-0-0-0-0-0-0-0-|
  -------------------------------------------------------------------|
  -------------------------------------------------------------------|

  ----------3--3--2------------------------------------3--3--2---------|
  --------0---0--0-----------------------------------0---0--0----------|
  ---------------------------------------------------------------------|
  -0-0-0---0-0--0---0-0-0-0-0-0-0-0-0-0-0-0-0-0-0-0---0-0--0---0-0-0-0-|
  ---------------------------------------------------------------------|
  ---------------------------------------------------------------------|

  ----------------------------1---1--------------------------3-3-2~-|
  ------------------------------------2---------------------0-0-0---|
  ------------------------------------------------------------------|
  -0-0-0-0-0-0-0-0-0-0-0-0------------------------------------------|
  -------------------------0-0-0-0-0-0-0-0-0-0-0-0-0-0-0-0----------|
  ------------------------------------------------------------------|

[Verse 2] - [00:56] - [01:23]
- ------------------------------------3--3--2-------------------------|
- ----------------------------------0---0--0--------------------------|
- --------------------------------------------------------------------|
- -0-0-0-0-0-0-0-0-0-0-0-0-0-0-0-0---0-0--0---0-0-0-0-0-0-0-0-0-0-0-0-|
- --------------------------------------------------------------------|
- --------------------------------------------------------------------|

  ------------3--3--2------------------------------------1---1--------|
  ----------0---0--0---------------------------------------------2----|
  --------------------------------------------------------------------|
  -0-0-0-0---0-0--0---0-0-0-0-0-0-0-0-0-0-0-0-0-0-0-0-----------------|
  ----------------------------------------------------0-0-0-0-0-0-0-0-|
  --------------------------------------------------------------------|

  ----------0~---------------------------3-3-2~-|
  ------------------------2~------------0-0-0---|
  ----------------------------------------------|
  ----------------------------------------------|
  -0-0-0-0-0-0-0-0-0-0-0-0-0-0-0-0-0-0-0--------|
  ----------------------------------------------|

[Chorus] - [01:23] - [01:51]
- -----------------------------------------------------------------|
- -----------------------------------------------------------------|
- -4-4-4-4-4-4-4-4-------------------------------------------------|
- -4-4-4-4-4-4-4-4-4-4-4-4-4-4-4-4-5-5-5-5-5-5-5-5-5-5-5-5-5-5-5-5-|
- -2-2-2-2-2-2-2-2-2-2-2-2-2-2-2-2-5-5-5-5-5-5-5-5-5-5-5-5-5-5-5-5-|
- -----------------3-3-3-3-3-3-3-3-3-3-3-3-3-3-3-3-3-3-3-3-3-3-3-3-|

  ---------------------------------------------------------------------|
  ---------------------------------------------------------------------|
  ---------------------------------11-11--9-9-9--6-6-6--7-7-7-7~-4-4-4-|
  -7-7-7-7-7-7-7-7-7-7-7-7-7-7-7-7-x--x---x-x-x--x-x-x--x-x-x-x--4-4-4-|
  -7-7-7-7-7-7-7-7-7-7-7-7-7-7-7-7-9--9---7-7-7--4-4-4--5-5-5-5~-2-2-2-|
  -5-5-5-5-5-5-5-5-5-5-5-5-5-5-5-5-0--0---0-0-0--0-0-0--0-0-0-0~-------|

  ----------------------------------------------------------------------|
  ----------------------------------------------------------------------|
  -4-4-4-4-4------------------------------------------------------------|
  -4-4-4-4-4-4-4-4-4-4-4-4-4-5-5-5-5-5-5-5-5-5-5-5-5-5-5-5-5-7-7-<7><7>-|
  -2-2-2-2-2-2-2-2-2-2-2-2-2-5-5-5-5-5-5-5-5-5-5-5-5-5-5-5-5-7-7-<7><7>-|
  -----------3-3-3-3-3-3-3-3-3-3-3-3-3-3-3-3-3-3-3-3-3-3-3-3-5-5-<5><5>-|

  --------------------------------------------------------------------|
  --------------------------------------------------------------------|
  ------------------------------------11-11--9-9-9--6-6-6--7-7-7-7----|
  -<7><7>-7-7-<7><7><7><7>-7-7-<7><7>-x--x---x-x-x--x-x-x--x-x-x-x----|
  -<7><7>-7-7-<7><7><7><7>-7-7-<7><7>-9--9---7-7-7--4-4-4--5-5-5-5\2~-|
  -<5><5>-5-5-<5><5><5><5>-5-5-<5><5>-0--0---0-0-0--0-0-0--0-0-0-0----|

[Quietness] - [01:51] - [02:03]

[Verse 3] - [02:03] - [02:29]
- ---3--3--2-----------------------------------3--3--2-----------------|
- -0---0--0----------------------------------0---0--0------------------|
- ---------------------------------------------------------------------|
- ---------------------------------------------------------------------|
- --2-2--2--2-2-2-2-2-2-2-2-2-2-2-2-2-2-2-2---2-2--2---2-2-2-2-2-2-2-2-|
- ---------------------------------------------------------------------|

  --------------------3--3--2-----------------------------------------|
  ------------------0---0--0------------------------------------------|
  --------------------------------------------------------------------|
  --------------------------------------------------------------------|
  -2-2-2-2-2-2-2-2---2-2--2---2-2-2-2-2-2-2-2-2-2-2-2-2-2-2-2-0-0-0-0-|
  --------------------------------------------------------------------|

  ----1---1----------------------0---0------------------3-3-2~-|
  ------------2----------------3--3---3-2~-------------0-0-----|
  -------------------------------------------------------------|
  -------------------------------------------------------------|
  -0-0-0-0-0-0-0-0-0-0-0-0-0-0--0--0---0-0-0-0-0-0-0-0---------|
  -------------------------------------------------------------|

[Outro] - [02:29] - [03:21]
- -----------------------------------------------------------------|
- -----------------------------------------------------------------|
- -4-4-4-4-4-4-4-4-------------------------------------------------|
- -4-4-4-4-4-4-4-4-4-4-4-4-4-4-4-4-5-5-5-5-5-5-5-5-5-5-5-5-5-5-5-5-|
- -2-2-2-2-2-2-2-2-2-2-2-2-2-2-2-2-5-5-5-5-5-5-5-5-5-5-5-5-5-5-5-5-|
- -----------------3-3-3-3-3-3-3-3-3-3-3-3-3-3-3-3-3-3-3-3-3-3-3-3-|

  ---------------------------------------------------------------------|
  ---------------------------------------------------------------------|
  ---------------------------------11-11--9-9-9--6-6-6--7-7-7-7~-4-4-4-|
  -7-7-7-7-7-7-7-7-7-7-7-7-7-7-7-7-x--x---x-x-x--x-x-x--x-x-x-x--4-4-4-|
  -7-7-7-7-7-7-7-7-7-7-7-7-7-7-7-7-9--9---7-7-7--4-4-4--5-5-5-5~-2-2-2-|
  -5-5-5-5-5-5-5-5-5-5-5-5-5-5-5-5-0--0---0-0-0--0-0-0--0-0-0-0~-------|

  ----------------------------------------------------------------------|
  ----------------------------------------------------------------------|
  -4-4-4-4-4------------------------------------------------------------|
  -4-4-4-4-4-4-4-4-4-4-4-4-4-5-5-5-5-5-5-5-5-5-5-5-5-5-5-5-5-7-7-<7><7>-|
  -2-2-2-2-2-2-2-2-2-2-2-2-2-5-5-5-5-5-5-5-5-5-5-5-5-5-5-5-5-7-7-<7><7>-|
  -----------3-3-3-3-3-3-3-3-3-3-3-3-3-3-3-3-3-3-3-3-3-3-3-3-5-5-<5><5>-|

  ----------------------------------------------------------------|
  --------------------------------------------------------<3><4>--|
  ------------------------------------11-11--9-9-9--2-2-2---------|
  -<7><7>-7-7-<7><7><7><7>-7-7-<7><7>-x--x---x-x-x--x-x-x---------|
  -<7><7>-7-7-<7><7><7><7>-7-7-<7><7>-9--9---7-7-7--0-0-0---------|
  -<5><5>-5-5-<5><5><5><5>-5-5-<5><5>-0--0---0-0-0--0-0-0---------|
                    |-------------------------------------^^^^----|
  The Harmonics here|can also be made by doing Pinch Harmonics on
  5 then 4 on your high e string (The real skinny one.).

  -----------------------------------------------------------------|
  -----------------------------------------------------------------|
  -------------14-14-14-14-14\11-11-11-11-11-------------6-6-2-2-2-|
  -5-5-5-5-5-5-x--x--x--x--x--x--x--x--x--x--7-7-7-7-7-7-x-x-x-x-x-|
  -5-5-5-5-5-5-12-12-12-12-12\9--9--9--9--9--7-7-7-7-7-7-4-4-0-0-0-|
  -3-3-3-3-3-3-0--0--0--0--0--0--0--0--0--0--5-5-5-5-5-5-0-0-0-0-0-|

  -------------------------------------------------------------------|
  -------------------------------------------------------------------|
  -2-2-6-6-6-4-4-4-4-4-4-4-4-4-4-4-4-6-6-6-6-------------14-14-14-14-|
  -x-x-x-x-x-4-4-4-4-4-4-4-4-4-4-4-4-x-x-x-x-5-5-5-5-5-5-x--x--x--x--|
  -0-0-4-4-4-2-2-2-2-2-2-2-2-2-2-2-2-4-4-4-4-5-5-5-5-5-5-12-12-12-12-|
  -0-0-0-0-0-------------------------0-0-0-0-3-3-3-3-3-3-0--0--0--0--|

  -------------------------------------------------------------------|
  -------------------------------------------------------------------|
  -14\11-11-11-11-11-------------6-6-2-2-2-2-2-6-6-6-4-4-4-4-4-4-4-4-|
  -x--x--x--x--x--x--7-7-7-7-7-7-x-x-x-x-x-x-x-x-x-x-4-4-4-4-4-4-4-4-|
  -12\9--9--9--9--9--7-7-7-7-7-7-4-4-0-0-0-0-0-4-4-4-2-2-2-2-2-2-2-2-|
  -0--0--0--0--0--0--5-5-5-5-5-5-0-0-0-0-0-0-0-0-0-0-----------------|

  -----------------------------------------------------------------|
  -----------------------------------------------------------------|
  -4-4-4-4-6-6-6-6---------------------------------11-11--9-9-9--6-|
  -4-4-4-4-x-x-x-x-5-5-5-5-5-5-5-5-5-5-5-5-5-5-5-5-x--x---x-x-x--x-|
  -2-2-2-2-4-4-4-4-5-5-5-5-5-5-5-5-5-5-5-5-5-5-5-5-9--9---7-7-7--4-|
  ---------0-0-0-0-3-3-3-3-3-3-3-3-3-3-3-3-3-3-3-3-0--0---0-0-0--0-|

  --------------------------------------------------------|
  --------------------------------------------------------|
  -6-6--7-7-7-11-11-12-12-9-9-9--12-12-12--18-18-18-18----|
  -x-x--x-x-x-x--x--x--x--x-x-x--x--x--x---x--x--x--x--9~-|
  -4-4--5-5-5-9--9--10-10-7-7-7--10-10-10--16-16-16-16-9~-|
  -0-0--0-0-0-0--0--0--0--0-0-0--0--0--0---0--0--0--0--7~-|

[Piano] - [03:21] - [04:18]

[Symbols Used]
~  Let Ring.
x  Dead note.
<> Notes with these around them are Natural Harmonics.

            
            
Suggest correction
Creating personal tab
Creating personal tab
You can edit any tab online and save it as your Personal.

You can edit, replace or remove any tab part or add personal notes – all changes will be seen only by you.

Personal tabs can be accessed anytime from any device, even offline.
Learn more »
comments
print report bad tab
11 comments total. Showing first comments.
0 reply
KissAndControl 230 Aug 18, 2006 03:44 AM

i liked it. i didnt play all of it, but what i did play i liked.
the bit that bothered me was the bit at the end of the first verse... doesnt quite sound right but i cant quite tell...

0 reply
icaneraseit4u 125 Sep 15, 2006 12:56 AM

I think this song is played in half step down + Drop D... you can hear the open bottom string twice in the intro and a few other times in the song... I won't rate yet, though, I want to take care and make sure I'm not hearing bass.

+1 reply
xIanx 10 Oct 15, 2006 08:15 AM

that doesn't even make sense icanraseit4u.... ;) haha anyways good job mate sounds like a pretty steller tab

guest
You may want to rate the tab now too:
select rating
Wanna post a correction for this tab? Suggest correction