Oops, an error
Loading. Please wait.

Kill Caustic bass

version 1
version 1

Whole song

Interactive

by AFI
1,171 views 1 this week
1 commentread comment
1 2 3 4 5
1 last vote to show rating
add to favorites
×
Save as Personal and add changes to this tab that will be seen only by you. Learn more ›
×
You can save this tab as Personal to edit and correct it or add notes. All changes will be seen only by you. Learn more »
launch autoscroll
font size
0
reset
guitar tuner
edit
Autoscroll
slow
fast
+/-
esc
set tempo
stop
Author
This is my first tab,I spent a lot of time doing this.I think its right,if not keep im 
that this is my first :)

Intro/Verse

Start at 0:03

G-----|-------------|------------------|----------------|
D-----|-------------|------------------|----------------|
A-----|-------------|------------------|----------------|
E-----|--2-0-3-2-0-2|---2-2-2-2-2-2-2--|--2-2-0-2/3-2--0|

Pre Chorus

G---9-9-9-9-9-9-9|----------------|-----------------|----------------|
D----------------|--4-4-4-4--4-4-4|-----------------|----------------|
A----------------|----------------|--7-7-7-7-7-7-7-7|-5-5-5-5-5-5-5-5|
E----------------|----------------|-----------------|----------------|

G-----------------|-------------|-------------|-------------|
D-----------------|-------------|-------------|-------------|
A--2-2-2-2-2-2-2-4|-4-4-4-4-4-4-|-4-4-4-4-4-4-|-4-4-4-4-4-4-|
E-----------------|-------------|-------------|-------------|

Chorus

G--------------|---------------------------|----------------|---------------|---------|
D---7---7---7--|---------------------------|----------------|---------------|---------|
A--------------|------------------------5-7|----------------|--------------7|----9/7--|
E-------------5|--5-5--5-5-5|-5-5-5--5-7---|-0-0-0---0-0-0-0|--0-0-0-0-12/--|---------|

G--------------|---------------|--------------|-------------|---------------|
D--------------|---------------|--------------|-------------|---------------|
A--------------|-----9---7-----|--------------|-------------|------------5-7|
E---5/7-7-5-5-2|---------------|--4-5-0-7-0-7/|-5-5-5-5-5-5-|-5-5-5--5--7---|

G------------------|----------------|---------|-------------|-----------|
D------------------|----------------|---------|-------------|-----------|
A------------------|-------------0-0|-9/7-----|-------------|--9---7----|
E---0-0-0--0-0-0-0-|-0-0-0-0-2-2----|---------|--5/7-7-5-5-2|-----------|

Repeat verse then chorus

Bridge

G----------|----------|--------------------|----------|---------------------|---------|
D----------|----------|--------------------|----------|---------------------|---------|
A----------|----------|--------------------|----------|---------------------|---------|
E--2--0--0-|--2--0--2-|--2/5--5--5--5/7-7-7|--2--0--2-|--2/5--5--5--5/7-7-7-|--2--0--2|

G----------|--------------------|---------|---------|----------|---------------------|
D----------|--------------------|---------|---------|----------|---------------------|
A----------|--------------------|---------|---------|----------|---------------------|
E--2--0--2-|--2/5--5--5--5/7-7-7|--2------|--2--2--2|--2--0--2-|---2/5--5-5-5-0-0-0-0|

G----------|---------------------|----------|----------------------|-----------|
D----------|---------------------|----------|----------------------|-----------|
A----------|---------------------|----------|----------------------|-----------|
E--2--0--2-|--2/5--5--5--5/7-7-7-|--2--0--2-|---2/5--5-5-5-0-0-0-0-|--2--0--2--|

Repeat chorus

Ending

G-------|---------------|--------|
D-------|---------------|--------|
A-------|---------------|--------|
E--7/---|---2-0-3-2-0-2-|--------|

Rate this :)

            
            
Suggest correction
Creating personal tab
Creating personal tab
You can edit any tab online and save it as your Personal.

You can edit, replace or remove any tab part or add personal notes – all changes will be seen only by you.

Personal tabs can be accessed anytime from any device, even offline.
Learn more »
Give kudos to tab author, rate the tab!
1 2 3 4 5
comments
print report bad tab
1 comment total.
0 reply
Emo guy 124 Dec 16, 2006 06:37 PM

Omg that was like completely wrong!
Y dont u listen to the song b4 u submit it dumbass!

guest
You may want to rate the tab now too:
select rating
Wanna post a correction for this tab? Suggest correction