Oops, an error
Loading. Please wait.

Killing Lights bass

version 2
version 2

Whole song

Interactive

by AFI
2,244 views 1 this week
3 commentsread comments
1 2 3 4 5
1 last vote to show rating
add to favorites
×
Save as Personal and add changes to this tab that will be seen only by you. Learn more ›
×
You can save this tab as Personal to edit and correct it or add notes. All changes will be seen only by you. Learn more »
launch autoscroll
font size
0
reset
guitar tuner
edit
Autoscroll
slow
fast
+/-
esc
set tempo
stop
Difficulty
this is the same as the previous tab but it is not written upside down so it is easier to understand. 

intro bass in at 8seconds.
G:1-1-1-1-4-6/8
D:------------|
A:------------|
E:------------|

verse- NOT EXACT AMOUNT OF TIMES TO PLAY NOTE, JUST PLAY TO THE RYTHYM OF THE SONG.

G:------------------------------------------------------------------|
D:------------------------------------------------------------------|
A:2-2-2-2-2-2-2-2-2-4-4-4-4-4-4-4-4---------------------------------|
E:----------------------------------4-4-4-4-4-4-4-4-4-4-4-4-4-4-4-4-|
NOT SURE HOW MANY TIMES PLAYED.

CHORUS

G:---------------------------------------------------------------|
D:---------------------------------------------------------------|
A:----------------2-2-2-2----------------------------------------|
E:4-4-4-4-2-2-2-2--------0-0-0-0-4-4-4-4-2-2-2-2-0-0-0-0-0-0-0-0-|
PLAY CHORUS ONCE

VERSE
G:------------------------------------------------------------------|
D:------------------------------------------------------------------|
A:2-2-2-2-2-2-2-2-2-4-4-4-4-4-4-4-4---------------------------------|
E:----------------------------------4-4-4-4-4-4-4-4-4-4-4-4-4-4-4-4-|
PLAY IN RYTHYM AGAIN.

CHORUS 
G:---------------------------------------------------------------|
D:---------------------------------------------------------------|
A:----------------2-2-2-2----------------------------------------|
E:4-4-4-4-2-2-2-2--------0-0-0-0-4-4-4-4-2-2-2-2-0-0-0-0-0-0-0-0-|
PLAY CHORUS TWICE.

BRIDGE SORTA THING.
G:------------------------|
D:------------------------|
A:--------5-5-5-5-2-2-2-2-|
E:4-4-4-4-----------------|

KEEP REPEATING UNTIL THE GUITAR BREAKS INTO A SOLO SORTA THING.

THEN PLAY
G:----9-----11------13-----13--|
D:--9--9--11--11--13-13--13-13-|
A:7------9------11-----11------|
E:-----------------------------|
TRY AND PLAY THAT TWICE.

THEN PLAY
CHORUS
G:---------------------------------------------------------------|
D:---------------------------------------------------------------|
A:----------------2-2-2-2----------------------------------------|
E:4-4-4-4-2-2-2-2--------0-0-0-0-4-4-4-4-2-2-2-2-0-0-0-0-0-0-0-0-|

            
            
Suggest correction
Creating personal tab
Creating personal tab
You can edit any tab online and save it as your Personal.

You can edit, replace or remove any tab part or add personal notes – all changes will be seen only by you.

Personal tabs can be accessed anytime from any device, even offline.
Learn more »
Give kudos to tab author, rate the tab!
1 2 3 4 5
comments
print report bad tab
3 comments total.
0 reply
MyChemSuicide 10 Mar 27, 2007 03:55 PM

Plagerism isnt cool.

0 reply
Xbig78macx 10 Feb 23, 2008 03:33 PM

^ i dont think it was plagerism, but i think he wanted to fix the way he wrote it upsode down on his last tab. good tab though.

0 reply
chrisjenks 2,712 Aug 06, 2008 08:30 AM

there are loads of mistakes!

guest
Wanna post a correction for this tab? Suggest correction