Oops, an error
Loading. Please wait.

Killing Lights tab

version 2
version 2

Whole song

Interactive

by AFI
10,111 views 6 this week
19 commentsread comments
1 2 3 4 5
x 14
add to favorites
×
Save as Personal and add changes to this tab that will be seen only by you. Learn more ›
×
You can save this tab as Personal to edit and correct it or add notes. All changes will be seen only by you. Learn more »
launch autoscroll
font size
0
reset
how to read this tab
guitar tuner
edit
Autoscroll
slow
fast
+/-
esc
set tempo
stop
Tabbed by: Rockford_rocks
Tuning: Half step flat (Eb Ab Db Gb Bb eb)


Intro (strumming might be off)

|-----------------------------------------------------|
|-----------------------------------------------------|
|---------------------------------------------2-0-----|
|-------------------------------------------------3-2-|
|--3-3-3333-3-5-5-5555-0-0-0000-0-0-000--x4-----------|
|-----------------------------------------------------|


|----5-5-5p3-5p3-5-5-5-|
|----------------------|
|--2-------------------|
|----------------------|
|----------------------|
|----------------------| (play that after "but she's not regretful")


Pre-Chorus

|---0~-------------------------------------|
|---5~------------5-5---------5-5-5--------|
|---5~----5----------5-5------------4h5----|
|---3~----3-x16---------5-5-5-----------3--|
|------------------------------------------|
|------------------------------------------|

Chorus

|---------------------------------------------------------|
|---------------------------------------------------------|
|--------------------5-55---------------------------------|
|--7-77-777-5-55-555-5-55-5-55-3-33-333-5-55-555-7-77-777-|
|--7-77-777-5-55-555-3-33-5-55-3-33-333-5-55-555-7-77-777-|
|--5-55-555-3-33-333-3-33-3-33-1-11-111-3-33-333-5-55-555-|

|---------------------------------------------|
|---------------------------------------------|
|--(10)------------9-9-----------------9-9----|
|--(10)------10-10-----10-10-----10-10-----10-|
|--(8)---8-8-----------------8-8--------------|
|--(8)----------------------------------------|

Interlude

|--------5---6---5---------5---6---5----|
|--6p5h6-------------6p5h6--------------|
|---------------------------------------|
|---------------------------------------|
|---------------------------------------|
|---------------------------------------|

(not sure about these chords, they're hard to hear)

|--------------------------------|
|--------------------------------|
|--7-----3-3-3333-5-----5-5-5555-|
|--7-x4--3-3-3333-5-x4--5-5-5555-|
|--------------------------------|
|--------------------------------|



Solo (the x's are dead strokes, thay might be a bit off)

|-13-xxxx-------12-xx---------12-xx-13-xx-|
|---------10-xx-------12-xxxx-------------|
|-----------------------------------------|
|-----------------------------------------|
|-----------------------------------------|
|-----------------------------------------|

|-----------------------------------------|
|--10h12-xx--13-xx--15-xx-15-15-15h17-17--|
|-----------------------------------------|
|-----------------------------------------|
|-----------------------------------------|
|-----------------------------------------|


|--13-xxxx-------12-xx----------------------------|
|----------10-xx-------15-15-15-13-13-13-12-12-17-|
|-------------------------------------------------|
|-------------------------------------------------|
|-------------------------------------------------|
|-------------------------------------------------|

Solo 2 (During last chorus)

|-------------------15-15-15----------------------|
|-12-12-12-13-13-13----------12-12-12-13-13-15-15-|
|-------------------------------------------------|
|-------------------------------------------------|
|-------------------------------------------------|
|-------------------------------------------------|

|---12----------------------------------------|
|------13p12----13p12----------13----15----17-|
|------------12-------12-14-14----14----14----|
|---------------------------------------------|
|---------------------------------------------|
|---------------------------------------------|

|-------------------------------------|
|-------------------------------------|
|-----------------9----10----12-------|
|-9-9999999-10-10---10----10----10----|
|----------------------------------8~-|
|-------------------------------------|

Piano Outro (in case anyone wants it)

|----------------|
|----------------|
|----------------|
|---10----9-7----|
|------10-----8~-|
|-------------8~-|


Enjoy!

            
            
Suggest correction
Creating personal tab
Creating personal tab
You can edit any tab online and save it as your Personal.

You can edit, replace or remove any tab part or add personal notes – all changes will be seen only by you.

Personal tabs can be accessed anytime from any device, even offline.
Learn more »
comments
print report bad tab
19 comments total. Showing first comments.
0 reply
missmurder_x 10 Jun 30, 2006 01:59 PM

Excllent tab. Pretty much perfect.

0 reply
Rockford_rocks 274 Jun 30, 2006 03:16 PM

Thank you

0 reply
DownbëloW 102 Jun 30, 2006 06:26 PM

thanks alot. the other tab sucks old nuts. rock on. by the way, what are dead strokes? I've never heard that before.

guest
You may want to rate the tab now too:
select rating
Wanna post a correction for this tab? Suggest correction