Oops, an error
Loading. Please wait.

Killing Lights tab

version 3
version 3

Whole song

Interactive

by AFI
1,204 views 9 this week
1 commentread comment
1 2 3 4 5
1 last vote to show rating
add to favorites
×
Save as Personal and add changes to this tab that will be seen only by you. Learn more ›
×
You can save this tab as Personal to edit and correct it or add notes. All changes will be seen only by you. Learn more »
launch autoscroll
font size
0
reset
how to read this tab
guitar tuner
edit
Autoscroll
slow
fast
+/-
esc
set tempo
stop
Author
Difficulty
[Killing Lights]
[AFI]
[Decemberunderground]

By: Joshua Oliveira
Tuning: D# G# C# F# A# D# (Also known as Eb Ab Db Gb Bb eb or half a
                           step down..yu kno, regular AFI tuning.)

[Intro] - [00:00] - [00:22]
- ------------------------------------------------------------------------|
- ------------------------------------------------------------------------|
- ------------------------------------------------------------------------|
- ------------------------------------------------------------------------|
- -3-3-3333-35555555-0-0-0000000-0-0-0-0/3-3-3333-3/5555555-0-0-0000000-0-|
- ------------------------------------------------------------------------|

  ------------------------------------------------------------------------|
  ------------------------------------------------------------------------|
  -----------------------------------------------------------------2-0----|
  --------------------------------------------------------------------3-2-|
  -0-0-0-3-3-3333-3/5555555-0-0-0000000-0-0-0-0-3-3-3333-35555555-0-------|
  ------------------------------------------------------------------------|

[Verse 1] - [00:22] - [00:44]
- ---------------------------------------------------------------------|
- ---------------------------------------------------------------------|
- -------------------------------------------------------------2-0-----|
- -----------------------------------------------------------------3-2-|
- -3-3-3333-3/5555555-0-0-0000000-0-0-0-0-3-3-3333-3/5555555-0---------|
- ---------------------------------------------------------------------|

  ----------------------------------------------------5-3h5p3h5-5---|
  ------------------------------------------------------------------|
  -------------------------------------------2----4--2------------2-|
  ------------------------------------------------------------------|
  -3-3-3333-3/5555555-0-0-0000000-0-0-0-0--3~-3/5~-5----------------|
  ------------------------------------------------------------------|

[Pre-Chorus 1] - [00:44] - [00:55-----------------------------------------|
- -0~-0~------------------------------------------------------------------|
- -1~---1~------------------------------------5-5--------5-5-5------------|
- -2~---------2-2-2-2-2-2-2-2-2-2-2-2-2-2-2-2----5-5----------3h5---------|
- -3~-----3~--3-3-3-3-3-3-3-3-3-3-3-3-3-3-3-3-------5-5-5--------3-3-3-3--|
- ------------------------------------------------------------------------|
- ------------------------------------------------------------------------|

[Chorus 1] - [00:55] - [01:06]
- --------------------3-3------------------------------------------------|
- -5-5-555-3-33-3-333-3-3-333-1-11-1-111-3-3-3-3-3-3-3-3-5-5-5-5-5-5-5-5-|
- -5-5-555-3-33-3-333-5-5-333-1-11-1-111-3-3-3-3-3-3-3-3-5-5-5-5-5-5-5-5-|
- -7-7-777-5-55-5-555-5-5-555-3-33-3-333-5-5-5-5-5-5-5-5-7-7-7-7-7-7-7-7-|
- -7-7-777-5-55-5-555-3-3-555-3-33-3-333-5-5-5-5-5-5-5-5-7-7-7-7-7-7-7-7-|
- -5-5-555-3-33-3-333-3-3-333-1-11-1-111-3-3-3-3-3-3-3-3-5-5-5-5-5-5-5-5-|

  --------------------------|
  -------5-5---------5-5----|
  ----5-5---5-5---5-5---5-5-|
  -3-3---------3-3----------|
  --------------------------|
  --------------------------|

[Fill] - [01:06] - [01:17]
- ---------------------------------------------------------------------|
- ---------------------------------------------------------------------|
- -------------------------------------------------------------2-0-----|
- -----------------------------------------------------------------3-2-|
- -3-3-3333-3/5555555-0-0-0000000-0-0-0-0-3-3-3333-3/5555555-0---------|
- ---------------------------------------------------------------------|

[Verse 2] - [01:17] - [01:39]
- ---------------------------------------------------------------------|
- ---------------------------------------------------------------------|
- -------------------------------------------------------------2-0-----|
- -----------------------------------------------------------------3-2-|
- -3-3-3333-3/5555555-0-0-0000000-0-0-0-0-3-3-3333-3/5555555-0---------|
- ---------------------------------------------------------------------|

  ----------------------------------------------------5-3h5p3h5-5---|
  ------------------------------------------------------------------|
  -------------------------------------------2----4--2------------2-|
  ------------------------------------------------------------------|
  -3-3-3333-3/5555555-0-0-0000000-0-0-0-0--3~-3/5~-5----------------|
  ------------------------------------------------------------------|

[Pre-Chorus 2] - [01:39] - [01:50-----------------------------------------|
- -0~-0~------------------------------------------------------------------|
- -1~---1~------------------------------------5-5--------5-5-5------------|
- -2~---------2-2-2-2-2-2-2-2-2-2-2-2-2-2-2-2----5-5----------3h5---------|
- -3~-----3~--3-3-3-3-3-3-3-3-3-3-3-3-3-3-3-3-------5-5-5--------3-3-3-3--|
- ------------------------------------------------------------------------|
- ------------------------------------------------------------------------|

[Chorus 2] - [01:50] - [02:15]
- --------------------3-3------------------------------------------------|
- -5-5-555-3-33-3-333-3-3-333-1-11-1-111-3-3-3-3-3-3-3-3-5-5-5-5-5-5-5-5-|
- -5-5-555-3-33-3-333-5-5-333-1-11-1-111-3-3-3-3-3-3-3-3-5-5-5-5-5-5-5-5-|
- -7-7-777-5-55-5-555-5-5-555-3-33-3-333-5-5-5-5-5-5-5-5-7-7-7-7-7-7-7-7-|
- -7-7-777-5-55-5-555-3-3-555-3-33-3-333-5-5-5-5-5-5-5-5-7-7-7-7-7-7-7-7-|
- -5-5-555-3-33-3-333-3-3-333-1-11-1-111-3-3-3-3-3-3-3-3-5-5-5-5-5-5-5-5-|

  ---------------------------------------------3-3----------------------|
  -------5-5---------5-5----5-5-555-3-33-3-333-3-3-333-1-11-1-111-3-3-3-|
  ----5-5---5-5---5-5---5-5-5-5-555-3-33-3-333-5-5-555-1-11-1-111-3-3-3-|
  -3-3---------3-3----------7-7-777-5-55-5-555-5-5-555-3-33-3-333-5-5-5-|
  --------------------------7-7-777-5-55-5-555-3-3-333-3-33-3-333-5-5-5-|
  --------------------------5-5-555-3-33-3-333-3-3-333-1-11-1-111-3-3-3-|

  ----------------------------------------------------------------3-3-|
  -3-3-3-3-3-5-5-5-5-5-5-5-5-------5-5---------5-5----6-6-6-6-6-6-6-6-|
  -3-3-3-3-3-5-5-5-5-5-5-5-5----5-5---5-5---5-5---5-5-5-5-5-5-5-5-5-5-|
  -5-5-5-5-5-7-7-7-7-7-7-7-7-3-3---------3-3----------3-3-3-3-3-3-----|
  -5-5-5-5-5-7-7-7-7-7-7-7-7------------------------------------------|
  -3-3-3-3-3-5-5-5-5-5-5-5-5------------------------------------------|

  -----------------|
  -5-5-5-5-5-5-5-5-|
  -5-5-5-5-5-5-5-5-|
  -3-3-3-3-3-3-3-3-|
  -----------------|
  -----------------|

[Bass] - [02:15] - [02:26]

[Bridge] - [02:26] - [02:49]
- ------5~-6-6-5~-------5~-6---------------------------------------------|
- -6p5h6-----------6p5h6----6--------------------------------------------|
- ---------------------------3-5~-7-7-7-7-3-3-3333-5-5-5-5-5-5-5555--7-7-|
- --------------------------------7-7-7-7-3-3-3333-5-5-5-5-5-5-5555--7-7-|
- -----------------------------------------------------------------------|
- -----------------------------------------------------------------------|

  ----------------------------------------------|
  ----------------------------------------------|
  -7-7-3-3-3333---------------------------------|
  -7-7-3-3-3333-3-3-3-3-3-3-3-3-5-5-5-5-5-5-5-5-|
  ----------------------------------------------|
  ----------------------------------------------|

[Solo] - [02:49] - [03:00]
- --------------------------------------------------8b-9b-10b-12b-12b-|
- ---------10-10-10--------------12-12-12------10h12------------------|
- -10-10-10--------10-10-12-12-12--------12-12------------------------|
- --------------------------------------------------------------------|
- --------------------------------------------------------------------|
- --------------------------------------------------------------------|

  -12b-----------------------------------------------------------------|
  -----11--12--14-16-16-16-14-14-14-13-13------------------------------|
  -----------------------------------------9-9--------------9-9-9------|
  --------------------------------------------10-10--------------8h10--|
  --------------------------------------------------10-10-10---------8-|
  ---------------------------------------------------------------------|

  -------|
  -------|
  -------|
  -------|
  -8-8-8-|
  -------|

[Outro] - [03:00] - [04:05]
- --------------------3-3------------------------------------------------|
- -5-5-555-3-33-3-333-3-3-333-1-11-1-111-3-3-3-3-3-3-3-3-5-5-5-5-5-5-5-5-|
- -5-5-555-3-33-3-333-5-5-333-1-11-1-111-3-3-3-3-3-3-3-3-5-5-5-5-5-5-5-5-|
- -7-7-777-5-55-5-555-5-5-555-3-33-3-333-5-5-5-5-5-5-5-5-7-7-7-7-7-7-7-7-|
- -7-7-777-5-55-5-555-3-3-555-3-33-3-333-5-5-5-5-5-5-5-5-7-7-7-7-7-7-7-7-|
- -5-5-555-3-33-3-333-3-3-333-1-11-1-111-3-3-3-3-3-3-3-3-5-5-5-5-5-5-5-5-|

  ---------------------------------------------3-3----------------------|
  -------5-5---------5-5----5-5-555-3-33-3-333-3-3-333-1-11-1-111-3-3-3-|
  ----5-5---5-5---5-5---5-5-5-5-555-3-33-3-333-5-5-555-1-11-1-111-3-3-3-|
  -3-3---------3-3----------7-7-777-5-55-5-555-5-5-555-3-33-3-333-5-5-5-|
  --------------------------7-7-777-5-55-5-555-3-3-333-3-33-3-333-5-5-5-|
  --------------------------5-5-555-3-33-3-333-3-3-333-1-11-1-111-3-3-3-|

  ----------------------------------------------------------------------|
  -3-3-3-3-3-5-5-5-5-5-5-5-5-------5-5---------5-5----5-5-555-3-33-3-33-|
  -3-3-3-3-3-5-5-5-5-5-5-5-5----5-5---5-5---5-5---5-5-5-5-555-3-33-3-33-|
  -5-5-5-5-5-7-7-7-7-7-7-7-7-3-3---------3-3----------7-7-777-5-55-5-55-|
  -5-5-5-5-5-7-7-7-7-7-7-7-7--------------------------7-7-777-5-55-5-55-|
  -3-3-3-3-3-5-5-5-5-5-5-5-5--------------------------5-5-555-3-33-3-33-|

  -3-3---------------------------------------------------|
  -3-3-333-1-11-1-111-3-3-3-3-3-3-3-3-5-5-5-5-5-5-5-5-1~-|
  -5-5-555-1-11-1-111-3-3-3-3-3-3-3-3-5-5-5-5-5-5-5-5-1~-|
  -5-5-555-3-33-3-333-5-5-5-5-5-5-5-5-7-7-7-7-7-7-7-7-3~-|
  -3-3-333-3-33-3-333-5-5-5-5-5-5-5-5-7-7-7-7-7-7-7-7-3~-|
  -3-3-333-1-11-1-111-3-3-3-3-3-3-3-3-5-5-5-5-5-5-5-5-1~-|


[Overdubbed Solo] - [03:22] - [04:05]
- -------------------15-15----------------12----------------------------|
- -13p12-13p12-12h13-------12-12-12h13-13---13--------13----------------|
- --------------------------------------------16-12-16--16-14--14-16p14-|
- ----------------------------------------------------------------------|
- ----------------------------------------------------------------------|
- ----------------------------------------------------------------------|

  -------------------------------------------------------|
  -------------------------------------------------------|
  -17p14-19p14-------------------------------------------|
  --------------------------------------14--15--17---17~-|
  --------------14-14-14-14-14-14-15--15--15--15--15-----|
  -------------------------------------------------------|


[Symbols Used]

h  Hammer On.
p  Pull Off.
~  Let Ring.
/  Slide Up.
-/ Slide Up from a note being held from before without rehitting the
   string before the slide.
b  Bend.

            
            
Suggest correction
Creating personal tab
Creating personal tab
You can edit any tab online and save it as your Personal.

You can edit, replace or remove any tab part or add personal notes – all changes will be seen only by you.

Personal tabs can be accessed anytime from any device, even offline.
Learn more »
Give kudos to tab author, rate the tab!
1 2 3 4 5
comments
print report bad tab
1 comment total.
0 reply
DownbëloW 102 Jul 26, 2006 12:01 PM

Everything but the first solo and the chorus is great. The chorus is just the fifth and the octaves.

guest
You may want to rate the tab now too:
select rating
Wanna post a correction for this tab? Suggest correction