Oops, an error
Loading. Please wait.

Love Like Winter tab

version 3
version 3

Whole song

by AFI
2,798 views 1 this week
2 commentsread comments
1 2 3 4 5
x 3
add to favorites
×
Save as Personal and add changes to this tab that will be seen only by you. Learn more ›
×
You can save this tab as Personal to edit and correct it or add notes. All changes will be seen only by you. Learn more »
launch autoscroll
font size
0
reset
how to read this tab
guitar tuner
backing track
0:00
0:00
edit
Autoscroll
slow
fast
+/-
esc
set tempo
stop
Author
Difficulty
I've been listening to this song for a while now.
It's a very simple song.
Most of those "Lead Sounding" riffs are just keyboard

Tuning: Eb Ab Db Gb Bb Eb
Note: This song can be played in standard but I've tabbed it this way because that's their normal tuning

Intro (Clean)
|----------------------------------|
|----------------------------------|
|-7-7------7-7-------7-7-------7-7-|
|----------------------------------|
|----------------------------------|
|----------------------------------|

Verse (Clean)
You can play either the notes or the chords but I like the notes
|--------------------------------------------------------------------|
|--------------------------------------------------------------------|
|--------------------------------------------------------------------|
|--------------------------------------------------------------------|
|-55555555555555555----------------555555555555555577777777777777777-|
|------------------7777777777777777----------------------------------|

Chorus (Distortion)
The note indicated beetween the[]is a tremelo note
  Q Q Q Q Q Q Q Q {E}       E E Q Q Q Q Q Q Q Q Q Q Q Q Q Q Q E E Q
|-------------------------------------------------------------------|
|-------------------------------------------------------------------|
|-------------------------------------------------------------------|
|-9-9-9-9-5-5-5-5-[7]-------7-7-5-9-9-9-9-5-5-5-5-7-7-7-7-7-7-7-7-5-|
|-9-9-9-9-5-5-5-5-[7]-------7-7-5-9-9-9-9-5-5-5-5-7-7-7-7-7-7-7-7-5-|
|-7-7-7-7-3-3-3-3-[5]-------5-5-3-7-7-7-7-3-3-3-3-5-5-5-5-5-5-5-5-3-|x2

Interlude

|---------------------------------|
|---------------------------------|
|---------------------------------|
|-9-9-----5-5-----7-7-----7-7-5-5-|
|-9-9-----5-5-----7-7-----7-7-5-5-|
|-7-7-----3-3-----5-5-----5-5-3-3-|x2

Verse
|--------------------------------------------------------------------|
|--------------------------------------------------------------------|
|--------------------------------------------------------------------|
|--------------------------------------------------------------------|
|-55555555555555555----------------555555555555555577777777777777777-|
|------------------7777777777777777----------------------------------|

|--------------------------------------------------------------------|
|--------------------------------------------------------------------|
|--------------------------------------------------------------------|
|--------------------------------------------------------------------|
|-5~-------------------------------555555555555555577777777777777777-|
|------------------7777777777777777----------------------------------|


Chorus Again
Intrelude Again

Bridge (Distortion)
Just Wail on this chord
|---|
|---|
|---|
|-9-|
|-9-|
|-7-|
pm.
Then: (Distortion)
|-----------------------------|
|-----------------------------|
|-----------------------------|
|-9-9-9-9-9-9-9-9-9-9-9-9-9-9-|
|-9-9-9-9-9-9-9-9-9-9-9-9-9-9-|
|-7-7-7-7-7-7-7-7-7-7-7-7-7-7-|
pm. . . . . . . . . . . .

Chorus Again

Outro (Distortion)
|---------|
|---------|
|---------|
|-9-9-9-9-|
|-9-9-9-9-|
|-7-7-7-7-|
pm. . . .

Ta Da!!!

            
            
Suggest correction
Creating personal tab
Creating personal tab
You can edit any tab online and save it as your Personal.

You can edit, replace or remove any tab part or add personal notes – all changes will be seen only by you.

Personal tabs can be accessed anytime from any device, even offline.
Learn more »
Give kudos to tab author, rate the tab!
1 2 3 4 5
comments
print report bad tab
2 comments total.
0 reply
Guitar|Freak 10 Jul 16, 2006 06:43 PM

The verse sounds wrong. Even if it happens to be right, it's overpowered by effects, so it doesn't sound like it at ALL.

Therefore, I doubt it is correct.

0 reply
monkeybuttox 10 Apr 10, 2007 12:18 PM

Its CORRECT!! The choruse is not quite but solid effort.. very solid

guest
You may want to rate the tab now too:
select rating
Wanna post a correction for this tab? Suggest correction