Oops, an error
Loading. Please wait.
We have an official Miss Murder tab made by UG professional guitarists. Check out the tab »
×
by AFI
187,576 views 51 this week
40 commentsread comments
1 2 3 4 5
x 47
add to favorites
launch autoscroll
font size
0
reset
how to read this tab
guitar tuner
backing track
0:00
0:00
Autoscroll
slow
fast
+/-
esc
set tempo
stop
Difficulty
novice
Guitar Eb Ab Db Gb Bb Eb

e|-----0-|
B|-------|
G|---2---|
D|-------|
A|-0-----|
E|-------|

                                pm.....
e|-5-5-5-5-3-3-3-3-|(3x)        e|-1-1-1-1-3-3-3-3-|
B|-5-5-5-5-3-3-3-3-|            B|-1-1-1-1-3-3-3-3-|
G|-5-5-7-7-5-5-3-3-|            G|-1-1-1-1-3-3-3-3-|
D|-7-7-7-7-5-5-5-5-|            D|-3-3-3-3-5-5-5-5-|
A|-7-7-5-5-3-3-5-5-|            A|-3-3-3-3-5-5-5-5-|
E|-5-5-5-5-3-3-3-3-|            E|-1-1-1-1-3-3-3-3-|

e|-----0---0-1-----0----0--------|
B|-------------------------------|
G|---2---2-------2----2-----2--0-|
D|-------------------------------|
A|-0-----------------------------|
E|-------------------------------|

e|-------------------------------|
B|-------------------------------|
G|-------------------------------|
D|-77-77-55-22-----77-77-55-55-2-|
A|-77-77-55-22-----77-77-55-55-2-|
E|-55-55-33-00-----55-55-33-33-0-|

                                pm.....
e|-5-5-5-5-3-3-3-3-|(3x)        e|-1-1-1-1-3-3-3-3-|
B|-5-5-5-5-3-3-3-3-|            B|-1-1-1-1-3-3-3-3-|
G|-5-5-7-7-5-5-3-3-|            G|-1-1-1-1-3-3-3-3-|
D|-7-7-7-7-5-5-5-5-|            D|-3-3-3-3-5-5-5-5-|
A|-7-7-5-5-3-3-5-5-|            A|-3-3-3-3-5-5-5-5-|
E|-5-5-5-5-3-3-3-3-|            E|-1-1-1-1-3-3-3-3-|

e|-----------------------------------------------------------------|
B|-----------------------------------------------------------------|
G|-222222-5-222222-222222-7-222222-000000-4-000000--------4--------|
D|-------------------------------------------------222222---222222-|
A|-----------------------------------------------------------------|
E|-----------------------------------------------------------------|

e|----------------------------------------------------------|
B|----------------------------------------------------------|
G|-222222-5-222222-222222-5-22-5-7-2-000000-4-000000----444-|
D|---------------------------------------------------222222-|
A|----------------------------------------------------------|
E|----------------------------------------------------------|

e|-12~~~~~~~~~~~~~~13~~~~~~10~~~~~~7-|
B|-----------------------------------|
G|-----------------------------------|
D|-----------------------------------|
A|-----------------------------------|
E|-----------------------------------|

e|-------------------------------|
B|-------------------------------|
G|-------------------------------|
D|-77-77-55-22-----77-77-55-55-2-|
A|-77-77-55-22-----77-77-55-55-2-|
E|-55-55-33-00-----55-55-33-33-0-|

                                pm.....
e|-5-5-5-5-3-3-3-3-|(3x)        e|-1-1-1-1-3-3-3-3-|
B|-5-5-5-5-3-3-3-3-|            B|-1-1-1-1-3-3-3-3-|
G|-5-5-7-7-5-5-3-3-|            G|-1-1-1-1-3-3-3-3-|
D|-7-7-7-7-5-5-5-5-|            D|-3-3-3-3-5-5-5-5-|
A|-7-7-5-5-3-3-5-5-|            A|-3-3-3-3-5-5-5-5-|
E|-5-5-5-5-3-3-3-3-|            E|-1-1-1-1-3-3-3-3-|

e|------------------------------------------------------------------|(2x)
B|------------------------------------------------------------------|
G|---------9-------8-------------------------9-------8--------------|
D|---7-------7---7---7---7-------------7-------7---7---7---7--------|
A|-0---0-0-----0-------0-------------0---0-0-----0-------0----10-10-|
E|-------------------------8-8-8-8-----------------------------8--8-|

                                           pm........
e|----------------------------------------------------------|
B|----------------------------------------------------------|
G|---------9-------8----------------------------------------|
D|---7-------7---7---7---7------------------7-7-7-7-7-7-7-7-|
A|-0---0-0-----0-------0------------10-10---7-7-7-7-7-7-7-7-|
E|-------------------------8-8-8-8---8--8---5-5-5-5-5-5-5-5-|

e|------------------------------------------------------------------|
B|------------------------------------------------------------------|
G|---------9-------8-------------------------9-------8--------------|
D|---7-------7---7---7---7-------------7-------7---7---7---7--------|
A|-0---0-0-----0-------0-------------0---0-0-----0-------0----10-10-|
E|-------------------------8-8-8-8-----------------------------8--8-|

 pm.......................
e|----------------------------------------------------------|
B|----------------------------------------------------------|
G|---------9-------8----------------------------------------|
D|---7-------7---7---7---7------------------7-7-7-7-7-7-7-7-|
A|-0---0-0-----0-------0------------10-10---7-7-7-7-7-7-7-7-|
E|-------------------------8-8-8-8---8--8---5-5-5-5-5-5-5-5-|

e|---------------------------|
B|---------------------------|
G|---------------------------|
D|---------------------------|
A|-7-7-9-9-10-10-5-5-7-7-9-9-|
E|-5-5-7-7--8--8-3-3-5-5-7-7-|

                                pm.....
e|-5-5-5-5-3-3-3-3-|(3x)        e|-1-1-1-1-3-3-3-3-|
B|-5-5-5-5-3-3-3-3-|            B|-1-1-1-1-3-3-3-3-|
G|-5-5-7-7-5-5-3-3-|            G|-1-1-1-1-3-3-3-3-|
D|-7-7-7-7-5-5-5-5-|            D|-3-3-3-3-5-5-5-5-|
A|-7-7-5-5-3-3-5-5-|            A|-3-3-3-3-5-5-5-5-|
E|-5-5-5-5-3-3-3-3-|            E|-1-1-1-1-3-3-3-3-|

                                pm.....
e|-5-5-5-5-3-3-3-3-|(3x)        e|-1-1-1-1-3-3-3-3-|-----|
B|-5-5-5-5-3-3-3-3-|            B|-1-1-1-1-3-3-3-3-|-----|
G|-5-5-7-7-5-5-3-3-|            G|-1-1-1-1-3-3-3-3-|-----|
D|-7-7-7-7-5-5-5-5-|            D|-3-3-3-3-5-5-5-5-|-7-7-|
A|-7-7-5-5-3-3-5-5-|            A|-3-3-3-3-5-5-5-5-|-7-7-|
E|-5-5-5-5-3-3-3-3-|            E|-1-1-1-1-3-3-3-3-|-5-5-|

(Guitar 2 played over very last chorus)
e|-55555555-77777777-88888888-33333333-55555555-77777777-10-10-10-10-10-10-10-10-88888888-|
B|----------------------------------------------------------------------------------------|
G|----------------------------------------------------------------------------------------|
D|----------------------------------------------------------------------------------------|
A|----------------------------------------------------------------------------------------|
E|----------------------------------------------------------------------------------------|

e|-55555555-77777777-88888888-33333333-5555555555555555-4444444444444444-|
B|-----------------------------------------------------------------------|
G|-----------------------------------------------------------------------|
D|-----------------------------------------------------------------------|
A|-----------------------------------------------------------------------|
E|-----------------------------------------------------------------------|


************************************

| ~  Vibrato

************************************
Suggest correction
comments
print report bad tab
40 comments total. Showing first comments.
0 reply
americanidiot71 10 Jun 09, 2006 08:17 PM

i have to hand it to you, GREAT TAB wow this is the best ive seen of this song and the easiest to play too

0 reply
nolifemusician 30 Jun 10, 2006 01:11 PM

umm this tab FUCKIN rocks Dude!!!!!!!!!
but label the damn song!!!!
idk wen the things come in :p great tab tho

0 reply
menticide__x 10 Jun 10, 2006 06:28 PM

nice job with tabbing, these are extremly acurate thanx :)

guest
You may want to rate the tab now too:
select rating
Wanna post a correction for this tab? Suggest correction