Oops, an error
Loading. Please wait.
We have an official Miss Murder tab made by UG professional guitarists. Check out the tab »
×
by AFI
78,149 views 39 this week
36 commentsread comments
1 2 3 4 5
x 48
add to favorites
×
Save as Personal and add changes to this tab that will be seen only by you. Learn more ›
×
You can save this tab as Personal to edit and correct it or add notes. All changes will be seen only by you. Learn more »
launch autoscroll
font size
0
reset
guitar tuner
backing track
0:00
0:00
edit
Autoscroll
slow
fast
+/-
esc
set tempo
stop
Author
I'm positive it's right because its basically from GuitarWorld Magazine (save a few 
 I apparently forgot to mention this, as so kindly pointed out by ledzepprules09.  Thanks bro.

(A bass pick is used for this song, I do believe)

                             MISS MURDER - AFI

Tabbed By : DeadlyBeauty

Tuning (from low to high): Eb Ab Db Eb

[Intro] (Fig. 1)                               (repeat twice for intro)
Eb|------------------------------------------------------------------------|
Db|----7-------12\------10\----5-------------------------------------------|
Ab|------------------------------------------------------------------------|
Eb|--5----5/10-----8--------3-----3/---------------------------------------|

[Chorus] (Fig. 2)
Eb|------------------------------------------------------------------------|
Db|----7-------12\----10\----5------7-------12\----10\----5---5------------|
Ab|------------------------------------------------------------------------|
Eb|--5----5/10-----8------3-----3/5----5/10-----8-------3---3--------------|
  "Hey Miss Murder,can I...       Hey Miss Murder,  can I..."

Eb|------------------------------------------------------------------------|
Db|----7-------12\----10\----5---------------------------------------------|
Ab|-------------------------------------------3-3-5-5--7-7-7-7--7-7-7-7-7-7|
Eb|--5----5/10-----8------3-----3--0---1-1-1-1-----------------------------|
                                      "Take my life..."

(Repeat Fig. 1 twice)

[Verse 1] (Fig. 3)
Eb|---------------------------5-5-5-5--5-----------------------------------|
Db|--------------7-7-7-7--7----------------7-7-7-7--7--5-5-5-5--5--5-5-5-5-|
Ab|------------------------------------------------------------------------|
Eb|--5-5-5-5--5------------------------------------------------------------|
                      "They shook...                And heavens bowed before

Eb|-----------------------------------------------------5-5-5-5--5---------|
Db|-5---------------------------------------7-7-7-7--7--------------7-7-7-7|
Ab|---7-7-7-7-7-7-7-7-7-7-7-7----------------------------------------------|
Eb|-----------------------------5-5-5-5--5---------------------------------|
      him,   simply   a   look                     can break          your
Eb|------------------------------------------------------------------------|
Db|7--5-5-5-5--5--5-5-5-5--5-----------------------------------------------|
Ab|--------------------------7-7-7-7--7--7-7-7-7--7------------------------|
Eb|------------------------------------------------------------------------|
   heart..."

(Fig. 4)
Eb|------------------------------------------------------------------------|
Db|------------------------------------------------------------------------|
Ab|------------------------------------------------------------------------|
Eb|--5-5-5-5-5-5-5-5--5-5-5-5-5-5-5-5---3-3-3-3-3-3-3-3--0-0-0-0-0-0-0-3-3-|
  "The stars..."                     "he left them all..."

Eb|------------------------------------------------------------------------|
Db|------------------------------------------------------------------------|
Ab|----------------------------------------------5-5-5--6-6-6----7---------|
Eb|-5-5-5-5-5-5-5-5----5-5-5-5-5-5-5-5---3-3-3-3---------------------------|
   "We're left to..."                    "he left...             behind!"

(Repeat Fig. 2)

[Interlude] (in eighth notes of 3)
Eb|----------------------------------------7-7-7-7-7-7---------------------|
Db|--------------7-7-7-7-7-7--9-9-9-9-9-9---------------9-9-9-9-9-9-9-9-9-9|
Ab|------------------------------------------------------------------------|
Eb|-5-5-5-5-5-5------------------------------------------------------------|

Eb|------------------------------------------------------------------------|
Db|9-9--6-6-6-6-6-6-6-6-6-6-6-6----------------7-7-7-7-7-7--9-9-9-9-9-9----|
Ab|------------------------------------------------------------------------|
Eb|-------------------------------5-5-5-5-5-5------------------------------|

Eb|--7-7-7-7-7-7-----------------------------------------------------------|
Db|----------------9-9-9-9-9-9-9-9-9-9-9-9\-6-6-6-6-4-5-6------------------|
Ab|------------------------------------------------------------------------|
Eb|------------------------------------------------------------------------|
                                                        "Dreams of..."

Eb|------.-----------------------------------------------------------------|
Db|--7---7-----------------------------------------------------------------|
Ab|--0---0-----------------------------------------------------------------|
Eb|--------------------------------------5-5-5--5-5-5--5-5-5--5-5-5--7-7-7-|
            "Won't pass..."              "Beauty will last..."

Eb|------------------------------------------------------------------------|
Db|------------------------------------------------------------------------|
Ab|--------5-5-5--5-5-5------------------------------11-11-11--11-11-11--11|
Eb|-7-7-7----------------7-7-7--7-7-7--7-7-7--7-7-7/-----------------------|

Eb|------------------------------------------------------------------------|
Db|------------------------------------------------------------------------|
Ab|-11-11--11\-------------------------------------------------------------|
Eb|------------------------------------------------------------------------|

(Repeat Fig. 4)
(Repeat Fig. 2 for second Chorus)

[Bridge]
Eb|------------------------------------------------------------------------|
Db|------------------------------------------------------------------------|
Ab|-------------------------------------------------------------.----------|
Eb|--5-(This is held 3 and a half measures, then...)------------8--8\------|

Eb|------------------------------------------------------------------------|
Db|---------7&---7*-6&---6*------------------7&---7*-6--6-6----------------|
Ab|----------------------------------------------------------.-------------|
Eb|--5&---5*----------------8&---8*\5*--5--5*----------------8--8\---------|
 "What's the rift..."
Eb|------------------------------------------------------------------------|
Db|---------7&---7*-6&---6*-------------------------------7-7-7-7----------|
Ab|-----------------------------------.--.---------------------------------|
Eb|--5&---5*----------------8-8-8\3---5--5----------5-5-5------------------|
                                    "Without hope, oh..."

                                                                    .
Eb|-----------------------------------------------------------5-7---5--5---|
Db|----------------------------------------------7-7-7-7--6-6--------------|
Ab|-----------7-7-7-7--6-6-6-6---------------------------------------------|
Eb|--5---5-5--------------------8-8-8-8--5-5-5-5---------------------------|
   "When the empty..."                              "...we were promised..."

Eb|------------------------------------------------------------------------|
Db|------------------------------------------------------------------------|
Ab|----------7-7---7----6-6---6------------.-------------------------------|
Eb|-5-5-5-5----------------------8-8-8\3---5--5\----------------0-0---0----|
                                             "No one ever let us put..."

Eb|------------------------------------------------------------------------|
Db|----------7-7-7--5-5-5--3-3-3-------------------------------------------|
Ab|------------------------------------------------------------------------|
Eb|-0-0---0-----------------------3-3-3---5-(this is held until...)--------|

(Repeat Fig. 2 for third Chorus)

[Outro Chorus]
Eb|------------------------------------------------------------------------|
Db|----7-------12\----10\----5------7-------12\----10\----5---5------------|
Ab|------------------------------------------------------------------------|
Eb|--5----5/10-----8------3-----3/5----5/10-----8-------3---3--------------|
  "Hey Miss Murder,can I...       Hey Miss Murder,  can I..."

Eb|------------------------------------------------------------------------|
Db|----7-------12\----10\----5---------------------------------------------|
Ab|-------------------------------------------3-3-5-5--7-7-7--5-5-5--3-3-3-|
Eb|--5----5/10-----8------3-----3--0---1-1-1-1-----------------------------|
                                      "Take my life..."

Eb|------------|
Db|------------|
Ab|--------.--.|
Eb|-3-3-3--5--5|
   "Oh..."

END

That's it!  Not too awful hard, but it is pretty tricky at times.  Have fun with it!



************************************

| b  Bend
| \  Slide down
| /  Slide up
| *  Natural harmonic
| .  Staccato

************************************

            
            
Suggest correction
Creating personal tab
Creating personal tab
You can edit any tab online and save it as your Personal.

You can edit, replace or remove any tab part or add personal notes – all changes will be seen only by you.

Personal tabs can be accessed anytime from any device, even offline.
Learn more »
comments
print report bad tab
36 comments total. Showing first comments.
+3 reply
ledzepprules09 10 Jul 11, 2006 07:31 AM

Way to steal it from GuitarWorld.

-2 reply
ledzepprules09 10 Jul 11, 2006 04:25 PM

Your lyrics are wrong too.

It's:

"What's the hook that twists within this verbose mystery? I would gladly bet my life upon it. That the ghost you love, your ray of light will fizzle out, without hope. Raaah! We're the empty set just floating through wrapped in skin, ever searching for what we were promised. Reaching for that golden ring we'd never let go, but who would ever let us put their filthy hands upon it?"

I know that's right cause I have the cd.

+4 reply
DownbëloW 102 Jul 17, 2006 03:17 PM

Guess what, the cheater tab above this one also is right out of guitar world. Why did UG take both tabs that are exactly the same? They never do that.

guest
You may want to rate the tab now too:
select rating
Wanna post a correction for this tab? Suggest correction