Oops, an error
Loading. Please wait.
We have an official Miss Murder tab made by UG professional guitarists. Check out the tab »
×
by AFI
23,568 views 18 this week
20 commentsread comments
1 2 3 4 5
x 18
add to favorites
×
Save as Personal and add changes to this tab that will be seen only by you. Learn more ›
×
You can save this tab as Personal to edit and correct it or add notes. All changes will be seen only by you. Learn more »
launch autoscroll
font size
0
reset
how to read this tab
guitar tuner
backing track
0:00
0:00
edit
Autoscroll
slow
fast
+/-
esc
set tempo
stop
Difficulty
AFI - Miss Murder (decemberunderground)
Tabbed by Brett and Lenny
<> - harmonics
pm - palm mute
~  - hold note

|-------|
|-------|
|-----9-|
|---7---|
|-0-----|
|-------|


|-5-5-5-5-3-3-3-3-|(2x)    |-------------------|
|-5-5-5-5-3-3-3-3-|    |-----------------------|
|-5-5-7-7-5-5-3-3-|    |-----------------------|
|-7-7-7-7-5-5-5-5-|    |-----------------------|
|-7-7-5-5-3-3-5-5-|    |-<5>-<5>-<5>-<5>-------|
|-5-5-5-5-3-3-3-3-|    |-----------------------|

			pm.....
|-5-5-5-5-3-3-3-3-|	|-1-1-1-1-7-7-7-7-|
|-5-5-5-5-3-3-3-3-|	|-1-1-1-1-7-7-7-7-|
|-5-5-7-7-5-5-3-3-|	|-1-1-1-1-9-9-9-9-|
|-7-7-7-7-5-5-5-5-|	|-3-3-3-3-9-9-9-9-|
|-7-7-5-5-3-3-5-5-|	|-3-3-3-3-7-7-7-7-|
|-5-5-5-5-3-3-3-3-|	|-1-1-1-1-7-7-7-7-|


|-----------------------------------------------|(2x)
|-----------------------------------------------|
|-----9---9-10----9-----9-----------------------|
|---7---7-------7----7-----7--5-----------------|
|-0-----------------------------<5>-<5>-<5>-<5>-|
|-----------------------------------------------|

   pm.  pm.  pm.  pm.      pm.  pm.
|----------------------------------------|
|----------------------------------------|
|----------------------------------------|
|-7777-7777-5555-2222-----7777-7777-5-52-|
|-7777-7777-5555-2222-----7777-7777-5-52-|
|-5555-5555-3333-0000-----5555-5555-3-30-|


|-5-5-5-5-3-3-3-3-|(2x)        |-------------------|
|-5-5-5-5-3-3-3-3-|        |-----------------------|
|-5-5-7-7-5-5-3-3-|        |-----------------------|
|-7-7-7-7-5-5-5-5-|        |-----------------------|
|-7-7-5-5-3-3-5-5-|        |-<5>-<5>-<5>-<5>-------|
|-5-5-5-5-3-3-3-3-|        |-----------------------|

				pm.....
|-5-5-5-5-3-3-3-3-|		|-1-1-1-1-7-7-7-7-|
|-5-5-5-5-3-3-3-3-|		|-1-1-1-1-7-7-7-7-|
|-5-5-7-7-5-5-3-3-|		|-1-1-1-1-9-9-9-9-|
|-7-7-7-7-5-5-5-5-|		|-3-3-3-3-9-9-9-9-|
|-7-7-5-5-3-3-5-5-|		|-3-3-3-3-7-7-7-7-|
|-5-5-5-5-3-3-3-3-|		|-1-1-1-1-7-7-7-7-|

pm................................................................
|-----------------------------------------------------------------|
|-----------------------------------------------------------------|
|--------5---------------7---------------4---------------4--------|
|-777777---777777-777777---777777-555555---555555-222222---222222-|
|-----------------------------------------------------------------|
|-----------------------------------------------------------------|

pm...............
|----------------------------------------------------------|
|----------------------------------------------------------|
|--------5---------------5----5-7----------4-----------444-|
|-777777---777777-777777---77-----7-555555---555555-222222-|
|----------------------------------------------------------|
|----------------------------------------------------------|

|-12~~~~~~~~~~~~~~13~~~~~~10~~~~~~7-|
|-----------------------------------|
|-----------------------------------|
|-----------------------------------|
|-----------------------------------|
|-----------------------------------|

   pm.  pm.  pm.  pm.      pm.  pm.
|----------------------------------------|
|----------------------------------------|
|----------------------------------------|
|-7777-7777-5555-2222-----7777-7777-5-52-|
|-7777-7777-5555-2222-----7777-7777-5-52-|
|-5555-5555-3333-0000-----5555-5555-3-30-|


|-5-5-5-5-3-3-3-3-|(2x)        |-------------------|
|-5-5-5-5-3-3-3-3-|        |-----------------------|
|-5-5-7-7-5-5-3-3-|        |-----------------------|
|-7-7-7-7-5-5-5-5-|        |-----------------------|
|-7-7-5-5-3-3-5-5-|        |-<5>-<5>-<5>-<5>-------|
|-5-5-5-5-3-3-3-3-|        |-----------------------|

				pm.....
|-5-5-5-5-3-3-3-3-|		|-1-1-1-1-7-7-7-7-|
|-5-5-5-5-3-3-3-3-|		|-1-1-1-1-7-7-7-7-|
|-5-5-7-7-5-5-3-3-|		|-1-1-1-1-9-9-9-9-|
|-7-7-7-7-5-5-5-5-|		|-3-3-3-3-9-9-9-9-|
|-7-7-5-5-3-3-5-5-|		|-3-3-3-3-7-7-7-7-|
|-5-5-5-5-3-3-3-3-|		|-1-1-1-1-7-7-7-7-|

*
|------------------------------------------------------------------|
|------------------------------------------------------------------|
|---------9-------8-------------------------9-------8--------------|
|---7-------7---7---7---7-------------7-------7---7---7---7--------|
|-0---0-0-----0-------0-------------0---0-0-----0-------0----10-10-|
|-------------------------8-8-8-8-----------------------------8--8-|

					   pm........
|----------------------------------------------------------|
|----------------------------------------------------------|
|---------9-------8----------------------------------------|
|---7-------7---7---7---7------------------7-7-7-7-7-7-7-7-|
|-0---0-0-----0-------0------------10-10---7-7-7-7-7-7-7-7-|
|-------------------------8-8-8-8---8--8---5-5-5-5-5-5-5-5-|*play 2x

|------------------------------------------------------------------|
|------------------------------------------------------------------|
|---------9-------8-------------------------9-------8--------------|
|---7-------7---7---7---7-------------7-------7---7---7---7--------|
|-0---0-0-----0-------0-------------0---0-0-----0-------0----10-10-|
|-------------------------8-8-8-8-----------------------------8--8-|

pm.......................
|----------------------------------------------------------|
|----------------------------------------------------------|
|---------9-------8----------------------------------------|
|---7-------7---7---7---7------------------7-7-7-7-7-7-7-7-|
|-0---0-0-----0-------0------------10-10---7-7-7-7-7-7-7-7-|
|-------------------------8-8-8-8---8--8---5-5-5-5-5-5-5-5-|

|-------------------------|
|-------------------------|
|-----4-4-5-5---------4-4-|
|-7-7-4-4-5-5-5-5-7-7-4-4-|
|-7-7-2-2-3-3-5-5-7-7-2-2-|
|-5-5-2-2-3-3-3-3-5-5-2-2-|


**
|-5-5-5-5-3-3-3-3-|(2x)        |-------------------|
|-5-5-5-5-3-3-3-3-|        |-----------------------|
|-5-5-7-7-5-5-3-3-|        |-----------------------|
|-7-7-7-7-5-5-5-5-|        |-----------------------|
|-7-7-5-5-3-3-5-5-|        |-<5>-<5>-<5>-<5>-------|
|-5-5-5-5-3-3-3-3-|        |-----------------------|

				pm.....
|-5-5-5-5-3-3-3-3-|        |-1-1-1-1-7-7-7-7-|          |------------|
|-5-5-5-5-3-3-3-3-|        |-1-1-1-1-7-7-7-7-|          |------------|
|-5-5-7-7-5-5-3-3-|        |-1-1-1-1-9-9-9-9-|          |------------|
|-7-7-7-7-5-5-5-5-|        |-3-3-3-3-9-9-9-9-|          |-7-7--------|
|-7-7-5-5-3-3-5-5-|        |-3-3-3-3-7-7-7-7-|          |-7-7--------|
|-5-5-5-5-3-3-3-3-|        |-1-1-1-1-7-7-7-7-|**play 2x      |-5-5---|


(2nd Guitar played over very last chorus)

|-55555555-77777777-88888888-33333333-55555555-77777777-10-10-10-10-10-10-10-10-88888888-|
|----------------------------------------------------------------------------------------|
|----------------------------------------------------------------------------------------|
|----------------------------------------------------------------------------------------|
|----------------------------------------------------------------------------------------|
|----------------------------------------------------------------------------------------|

|-55555555-77777777-88888888-33333333-5~~~~~~-4~~~~~~~-|
|------------------------------------------------------|
|------------------------------------------------------|
|------------------------------------------------------|
|------------------------------------------------------|
|------------------------------------------------------|


I posted this tab earlier and made some corrections (added the harmonics, corrected the 
changed the prechours, changed some positions, and corrected some counts) with 
from Lenny. This is close to perfect. Enjoy.

            
            
Suggest correction
Creating personal tab
Creating personal tab
You can edit any tab online and save it as your Personal.

You can edit, replace or remove any tab part or add personal notes – all changes will be seen only by you.

Personal tabs can be accessed anytime from any device, even offline.
Learn more »
comments
print report bad tab
20 comments total. Showing first comments.
0 reply
DownbëloW 102 May 10, 2006 08:15 PM

I'm confused at the part where it goes from the first chorus to the first verse. I think you got lazy and didn't want to take the time to tab it right. The rest of it is great, but that one part...it's just...off.

0 reply
GibsonSGgirl 20 May 12, 2006 04:43 PM

pretty good

0 reply
GibsonSGgirl 20 May 12, 2006 04:44 PM

...a tad off but pretty good

guest
Wanna post a correction for this tab? Suggest correction