Oops, an error
Loading. Please wait.
We have an official Miss Murder tab made by UG professional guitarists. Check out the tab »
×
by AFI
4,078 views 1 this week
5 commentsread comments
1 2 3 4 5
x 5
add to favorites
×
Save as Personal and add changes to this tab that will be seen only by you. Learn more ›
×
You can save this tab as Personal to edit and correct it or add notes. All changes will be seen only by you. Learn more »
launch autoscroll
font size
0
reset
how to read this tab
guitar tuner
backing track
0:00
0:00
edit
Autoscroll
slow
fast
+/-
esc
set tempo
stop
Author
Difficulty
[Miss Murder]
[AFI]
[Decemberunderground]

By: Joshua Oliveira
Tuning: D# G# C# F# A# D# (Regular AFI)

[Intro] - [00:00] - [00:27]
- ------0~-----------------------------------------------------------|
- -0-0-1~--------------------------------------------5-55-3-33-------|
- -2-2~-----------------------------------------5-55-7-77-5-55-33-33-|
- -2-2~----<2><3><4><6><7><8><9><7><5><4><3><2>-7-77-7-77-5-55-55-55-|
- -0-0~-----------------------------------------7-77-5-55-3-33-55-55-|
- ----------------------------------------------5-55-5-55-3-33-33-33-|

  ------------------------------------------------------------------------|
  ------5-55-3-33-------------------5-55-3-33-----------------------------|
  -5-55-7-77-5-55-33-----------5-55-7-77-5-55-33-33-----------------------|
  -7-77-7-77-5-55-55-----------7-77-7-77-5-55-55-55-3-3-33-33-22-22-22-22-|
  -7-77-5-55-3-33-55-----------7-77-5-55-3-33-55-55-3-3-33-33-22-22-22-22-|
  -5-55-5-55-3-33-33-<3><3><3>-5-55-5-55-3-33-33-33-1-1-11-11-00-00-00-00-|
PM                                                  ...

  -----------------------------------------------------------|
  -----------------------------------------------------------|
  ----9-9-10--9-9----------------9-9-10--9-9-----------------|
  -7-7-7-----7-7-7-5----------7-7-7-----7-7-7-5--------------|
  -0----------------<5><5><5>-0----------------<5><5><5><5~>-|
  -----------------------------------------------------------|
PM .                          .

[Verse 1 Bass] - [00:27] - [00:40]

[Verse 1 Guitar] - [00:40] - [00:53]
- ------------------------------------------------------------------|
- ------------------------------------------------------------------|
- ------------------------------------------------------------------|
- -7-7-7-77--7-7-7-77--5-5-5-55--2-2-2-22--7-7-7-77--7-7-7-77--5-55-|
- -7-7-7-77--7-7-7-77--5-5-5-55--2-2-2-22--7-7-7-77--7-7-7-77--5-55-|
- -5-5-5-55--5-5-5-55--3-3-3-33--0-0-0-00--5-5-5-55--5-5-5-55--3-33-|
PM   ......    ......    ......    ......    ......    ......    ..

  ------|
  ------|
  ------|
  -5~-2-
  -5~-2-
  -3~-0-

[Chorus 1] - [00:53] - [01:06]
- ---------------------------------------------------------------------|
- ------5-55-3-33-------------5-55-3-33-------------------5-55-3-33----|
- -5-55-7-77-5-55-33-33--5-55-7-77-5-55-33-----------5-55-7-77-5-55-33-|
- -7-77-7-77-5-55-55-55--7-77-7-77-5-55-55-----------7-77-7-77-5-55-55-|
- -7-77-5-55-3-33-55-55--7-77-5-55-3-33-55-----------7-77-5-55-3-33-55-|
- -5-55-5-55-3-33-33-33--5-55-5-55-3-33-33-<3><3><3>-5-55-5-55-3-33-33-|

  --------------------------|
  --------------------------|
  -33-----------------------|
  -55-3-3-33-33-22-22-22-22-|
  -55-3-3-33-33-22-22-22-22-|
  -33-1-1-11-11-00-00-00-00-|
PM    ...

[Fill] - [01:06] - [01:19]
- ---------------------------------------------------------------------|
- -------1------------3---------------------------5-------------1------|
- -222222-22222-222222-22222-000000-4-00000---------------222222-22222-|
- ------------------------------------------222222-22222---------------|
- ---------------------------------------------------------------------|
- ---------------------------------------------------------------------|
PM ...... ..... ...... ..... ......   ..... ...... .....  ...... .....

  ---------------------------------------------|
  -------1--1h3-3----------------5-5-5-5-5-5-5-|
  -222222-22------000000-4-00000-x-x-x-x-x-x-x-|
  -------------------------------2-2-2-2-2-2-2-|
  -------------------------------0-0-0-0-0-0-0-|
  ---------------------------------------------|

[Verse 2 Bass] - [01:19] - [01:27]

[Fill 2] - [01:27] - [01:33]
- -12~-13~-10~-----|
- -------------12~-|
- -----------------|
- -----------------|
- -----------------|
- -----------------|

[Verse 2 Guitar] - [01:33] - [01:47]
- ------------------------------------------------------------------|
- ------------------------------------------------------------------|
- ------------------------------------------------------------------|
- -7-7-7-77--7-7-7-77--5-5-5-55--2-2-2-22--7-7-7-77--7-7-7-77--5-55-|
- -7-7-7-77--7-7-7-77--5-5-5-55--2-2-2-22--7-7-7-77--7-7-7-77--5-55-|
- -5-5-5-55--5-5-5-55--3-3-3-33--0-0-0-00--5-5-5-55--5-5-5-55--3-33-|
PM   ......    ......    ......    ......    ......    ......    ..

  ------|
  ------|
  ------|
  -5~-2-
  -5~-2-
  -3~-0-

[Chorus 2] - [01:47] - [02:00]
- ---------------------------------------------------------------------|
- ------5-55-3-33-------------5-55-3-33-------------------5-55-3-33----|
- -5-55-7-77-5-55-33-33--5-55-7-77-5-55-33-----------5-55-7-77-5-55-33-|
- -7-77-7-77-5-55-55-55--7-77-7-77-5-55-55-----------7-77-7-77-5-55-55-|
- -7-77-5-55-3-33-55-55--7-77-5-55-3-33-55-----------7-77-5-55-3-33-55-|
- -5-55-5-55-3-33-33-33--5-55-5-55-3-33-33-<3><3><3>-5-55-5-55-3-33-33-|

  --------------------------|
  --------------------------|
  -33-----------------------|
  -55-3-3-33-33-22-22-22-22-|
  -55-3-3-33-33-22-22-22-22-|
  -33-1-1-11-11-00-00-00-00-|
PM    ...

[Bridge] - [02:22] - [02:47]
- -------------------------------------------------------------------|
- -------------------------------------------------------------------|
- ------9---8------------------9---8----9--9--------9---8------------|
- --7----7-7-7-------------7----7-7-7---10-10---7----7-7-7-----------|
- -0-0-0--0---0-----------0-0-0--0---0--10-10--0-0-0--0---0----------|
- --------------0-8-8-8-0-------------0-8--8---------------0-8-8-8-0-|

  --------------------------------------------5-5-------------------|
  --------------------------------------------5-5----Distortion-Now-|
  ------9---8----9--9--------9---8------------5-5-------------------|
  --7----7-7-7---10-10---7----7-7-7-----------7-7----7-7-7-7-7-7-7--|
  -0-0-0--0---0--10-10--0-0-0--0---0----------7-7----7-7-7-7-7-7-7--|
  -------------0-8--8---------------0-8-8-8-0-5-5----5-5-5-5-5-5-5--|
PM                                                   .....

  -------------------------------------------------------------------|
  -------------------------------------------------------------------|
  ------9---8------------------9---8----9--9--------9---8------------|
  --7----7-7-7-------------7----7-7-7---10-10---7----7-7-7-----------|
  -0-0-0--0---0-----------0-0-0--0---0--10-10--0-0-0--0---0----------|
  --------------0-8-8-8-0-------------0-8--8---------------0-8-8-8-0-|
PM                                             . ... ... ...

  -5-5----0-00-00-00-00-00-00-00-0-00---------------------------------|
  -5-5----0-00-00-00-00-00-00-00-0-00---------------------------------|
  -5-5----0-00-00-00-00-00-00-00-0-00---------------------------------|
  -7-7----2-22-22-22-22-22-22-22-2-22-------7-77-5-55------------7-77-|
  -7-7----2-22-22-22-22-22-22-22-2-22--7-77-5-55-3-33-55-55-7-77-5-55-|
  -5-5----0-00-00-00-00-00-00-00-0-00--5-55-5-55-3-33-33-33-5-55-5-55-|

  --------------------------------------|
  --------------------------------------|
  --------------------------------------|
  -<9><9><9><9><9><9><5><5><5><5><5><5>-
  --------------------------------------|
  --------------------------------------|

[Chorus 3] - [02:47] - [03:15]
- ---------------------------------------------------------------------|
- ------5-55-3-33-------------5-55-3-33-------------------5-55-3-33----|
- -5-55-7-77-5-55-33-33--5-55-7-77-5-55-33-----------5-55-7-77-5-55-33-|
- -7-77-7-77-5-55-55-55--7-77-7-77-5-55-55-----------7-77-7-77-5-55-55-|
- -7-77-5-55-3-33-55-55--7-77-5-55-3-33-55-----------7-77-5-55-3-33-55-|
- -5-55-5-55-3-33-33-33--5-55-5-55-3-33-33-<3><3><3>-5-55-5-55-3-33-33-|

  ----------------------------------------------------------------------|
  -------------------------------5-55-3-33-------------5-55-3-33--------|
  -33-----------------------5-55-7-77-5-55-33-33--5-55-7-77-5-55-33-----|
  -55-3-3-33-33-22-22-22-22-7-77-7-77-5-55-55-55--7-77-7-77-5-55-55-----|
  -55-3-3-33-33-22-22-22-22-7-77-5-55-3-33-55-55--7-77-5-55-3-33-55-----|
  -33-1-1-11-11-00-00-00-00-5-55-5-55-3-33-33-33--5-55-5-55-3-33-33-<3>-|
PM    ...

  ---------------------------------------------------5-5-|
  -------------5-55-3-33-----------------------------5-5-|
  --------5-55-7-77-5-55-33-33-----------------------5-5-|
  --------7-77-7-77-5-55-55-55-3-3-33-33-22-22-22-22-7-7-|
  --------7-77-5-55-3-33-55-55-3-3-33-33-22-22-22-22-7-7-|
  -<3><3>-5-55-5-55-3-33-33-33-1-1-11-11-00-00-00-00-5-5-|

[Overdubbed End Bit] - [03:00] - [03:15]
- -5555-7777-88888888-4444-5555-7777-10101010-8888-5555-7777-8888-4444-|
- ---------------------------------------------------------------------|
- ---------------------------------------------------------------------|
- ---------------------------------------------------------------------|
- ---------------------------------------------------------------------|
- ---------------------------------------------------------------------|
TP *******************************************************************

  -5~-4~-5-5-|
  -------5-5-|
  -------5-5-|
  -------7-7-|
  -------7-7-|
  -------5-5-|

[Symbols Used]
~     Let Ring.
<>    Notes with these around them a Natural Harmonics.
PM... Palm Mute the notes with Dots (.) under them.
TP*** Tremolo Pick (Pick really fast.) the notes with stars (*) under
      them.
h     Hammer On.
x     Dead Note.

            
            
Suggest correction
Creating personal tab
Creating personal tab
You can edit any tab online and save it as your Personal.

You can edit, replace or remove any tab part or add personal notes – all changes will be seen only by you.

Personal tabs can be accessed anytime from any device, even offline.
Learn more »
comments
print report bad tab
5 comments total. Showing first comments.
0 reply
FalloutFanv2 291 Aug 02, 2006 10:35 AM

--------------------------------------|
--------------------------------------|
--------------------------------------|
--
--------------------------------------|
--------------------------------------|

i never noticed those till the last time i listened to it and that was when i was looking at this tab
5*****

good ****ing job

0 reply
DownbëloW 102 Aug 02, 2006 04:25 PM

Nice job,"A" for effort, but not good enough for 5 stars.

0 reply
AFI-Melkor 10 Nov 26, 2006 05:56 AM

Well I was thinking of writing an accurate tab to this with the right natural harmonics included, but it looks like you beat me to it. Thanks for using your ears!

guest
You may want to rate the tab now too:
select rating
Wanna post a correction for this tab? Suggest correction